Song name
# A B C D E F G H I J K L M N O P Q R S T U V W X Y Z

Kevin Devine - Whistling Dixie tab

This is played throughout the whole song:

e|---------------------------------------------------------------------------|
B|---------------------------------------------------------------------------|
G|---------------------------------------------------------------------------|
D|----------------4-4-4-4-4-4-4-4-4-4-4-4-4-4-4-4-5-5-5-5-5-5-5-5-5----------|
A|--2-2-2-2-2-2-2-2-2-2-2-2-2-2-2-2-5-5-5-5-5-5-5-4-4-4-4-4-4-4-4-4----------|
E|--3-3-3-3-3-3-3-0-0-0-0-0-0-0-0-0------------------------------------------|

Sometimes it's played like this:

e|---------------------------------------------------------------------------|
B|---------------------------------------------------------------------------|
G|---------------------------------------------------------------------------|
D|----------------4-4-2-2-0-0-2-2-2-4-4-4-4-4-4-4-4-4-4-4-4-4-4-4-4----------|
A|--2-2-2-2-2-2-2-2-2-2-2-2-2-2-2-2-5-5-5-5-5-5-5-5-5-5-5-5-5-5-5-5----------|
E|--3-3-3-3-3-3-3-0-0-0-0-0-0-0-0-0------------------------------------------|

It varies a lot during the song, but that's about it.
There may be a little more variation at the end of the song (around 2:19) if you really 
to it.


Lyrics

We're a nation full of dumbbells
pulling nightshifts at the gym
And we're a nation full of bookworm girls
dumbing down to fall in love with them

We're a nation full of suspects
whistling dixie at the scene
And we're a nation full of bad detectives
selling clues to everyone we meet

We're a nation full of envy
insecure and losing sleep
We're a nation full of jealous boyfriends
driven nuts by facts and history

We're a nation full of ivy
it's wall to wall to wall all green
And we're a nation full of soundbyte bloodcells
bound in knots and swelling down the stream

We wrap bibles up in blankets
just in case we're watched in sleep
But it's the slingshots underneath our pillows
that keep us calm and rested and relieved

'Cause we're a nation built on egg shells, bandages, and apple seeds
attractive homes on top of bruised foundations
that come apart gradually...
before they're leveled completely
Yeah, before they're leveled completely.
Tap to rate this tab
 
# A B C D E F G H I J K L M N O P Q R S T U V W X Y Z