Song name
# A B C D E F G H I J K L M N O P Q R S T U V W X Y Z

Kevin Devine - I Used To Be Someone tab

-------------------------------------------------------------------------------
			     I Used to Be Someone - Kevin Devine
-----------------------------------------------------------------------------
Tabbed by: Ryan Mack
Email: mackryan09@gmail.com
Album: Between the Concrete & Clouds
Tuning: Standard

e|--------------------------------------------------------------------------|
B|--------------------------------------------------------------------------|
G|---7-------------7--------------------------------------------------------|
D|---7------5------7------2-0-----------------------------------------------|
A|---5------7------5------0-0-----------------------------------------------|
E|------------------------3-3-----------------------------------------------|

Play these throughout the the song (Verses and Choruses)


e|---------------2----------------------------------------------------------|
B|---3-----------3----------------------------------------------------------|
G|---4-----2-----2----------------------------------------------------------|
D|---4-----0-----0----------------------------------------------------------|
A|---2-----0----------------------------------------------------------------|
E|---------3----------------------------------------------------------------|

"Oooo oooo wooo oooo oooo oooo"


That's it! Listen to the song to get the pattern. 
Tap to rate this tab
 
# A B C D E F G H I J K L M N O P Q R S T U V W X Y Z