Song name
# A B C D E F G H I J K L M N O P Q R S T U V W X Y Z

Kevin Devine - Brothers Blood tab

This isn't totally accurate, but it sounds good.

Guitar 1

e--------------0---0-------------0---0---------1-1-1-------------3---3-----|
B--------------1-1-1-------------1-1-1---------3-3-3-------------3---3-----|
G--------------2-2-2-------------0-0-0-----0-2-2-2-2-0h2p0-0-----0-0-0-----|
D-2-2p0--------2-2-2-2-2p0-----0-2-2-2-2-3-------------------2---0-0-0-----|
A-------3p0-0--0---0-------3p0---3---3---------------------------2-2-2-----|
E--------------------------------------------------------------3-3---3-----|

e---------0---0-------------0---0---------1-1-1-------------3---3----------|
B---------1-1-1-------------1-1-1---------3-3-3-------------3---3----------|
G---------2-2-2-------------0-0-0-----0-2-2-2-2-0h2p0-0-----0-0-0----------|
D---------2-2-2-2-2p0-----0-2-2-2-2-3-------------------2---0-0-0----------|
A-2h3-2-0-0---0-------3p0---3---3---------------------------2-2-2----------|
E---------------------------------------------------------3-3---3----------|

Repeat the second part until the verse starts.

Guitar 2 (this guitar comes in after the first run through of the intro)

e-17-17-17p15----15----15----------------------------15h17-17--------------|
B-------------17----17----17-17-17-15h17p15-15-15h17-----------------------|
G--------------------------------------------------------------------------|
D--------------------------------------------------------------------------|
A--------------------------------------------------------------------------|
E--------------------------------------------------------------------------|
Tap to rate this tab
# A B C D E F G H I J K L M N O P Q R S T U V W X Y Z