Song name
# A B C D E F G H I J K L M N O P Q R S T U V W X Y Z

Kevin Devine - Wolfs Mouth tab

pretty easy song.

tuning: standard

e--|-----| -----------------0~---------------------------------- |
B--|-----|.-----1~----------3~----------10~----10~----10~-------.|
G--|-----| -----0~----------0~-----------0~-----0~-----0~------- |
D--|-----|.-----------------------------------------------------.|
A--|-----| ----------------------------------------------------- |
E--|--1--| --1------1/3--3------3/8--8-------8------8------8\1-- |

riff is the entire song.. there is a variation in there somewhere like this:

e--|----------------------------------|
B--|----------12~----12~----12~-------|
G--|-----------0~-----0~-----0~-------|
D--|----------------------------------|
A--|----------------------------------|
E--|--3/8--8-------8------8------8\1--|
Tap to rate this tab
 
# A B C D E F G H I J K L M N O P Q R S T U V W X Y Z