Song name
# A B C D E F G H I J K L M N O P Q R S T U V W X Y Z

Kevin Devine - Fever Moon tab

Fever Moon by Kevin Devine
Capo on 3rd fret
Intro: play 3 times
------------------------------------------------------------------------------|
----------1----1--------------------------------------------------------------|
----------2----2--------------------------------------------------------------|
----------2----2--------------------------------------------------------------|
----------0----0----------3h5-------------------------------------------------|
-------------------------------------------------3--------6-------------------|

Verse: these are the basics but the timing and tapping you can get by listening to the 
song. Play around with the verse during solo
          X4      X4         X2
-----------------------------------------------------------------------------|
----------1-------0----------3---------1--------0-------1--------------------|
----------2-------1----------0---------2--------1-------2--------------------|
----------2-------2----------0---------3--------2-------2--------------------|
----------0-------2----------2---------3--------2-------0--------------------|
-----------------------------------------------------------------------------|

-----------------------------------------------------------------------------|
----------1----1-------------------------------------------------1-----------|
----------2----2-------------------------------------------------2-----------|
----------2----2-------------------------------------------------2-----------|
----------0----0----------3h5p3----------------------------------0-----------|
-------------------------------------------------3--------6------------------|

Chorus
         X2      X2          X2        X2       X2       X2
------------------------------------------------------------------------------|
----------1-------0----------1---------2--------1-------0---------------------|
----------0-------1----------2---------3--------2-------1---------------------|
----------2-------2----------2---------2--------3-------2---------------------|
----------3-------2----------0---------0--------3-------2---------------------|
------------------------------------------------------------------------------|

------------------------------------------------------------------------------|
----------1----1--------------------------------------------------------------|
----------2----2--------------------------------------------------------------|
----------2----2--------------------------------------------------------------|
----------0----0----------3h5p3-----------------------------------------------|
-------------------------------------------------3--------6-------------------|
Tap to rate this tab
# A B C D E F G H I J K L M N O P Q R S T U V W X Y Z