Song name
# A B C D E F G H I J K L M N O P Q R S T U V W X Y Z

Kevin Devine - Noose Dress Like A Knecklace tab

great artist, great song from new york i belive. he has a band too, check him out @
kevindevine.net.

this isnt exact, but this is how i played it at a starbucks talent show. haha.


intro/verse:

 E/A     E
e-0--------0-|
b-0--------0-|
g-1--------1-|
d-2--------2-|
a-x--------2-|
e-4--------0-|

"i dont know where hes gonna park that thing"
e-0-0---0-0---0-0---0-0-|
b-0-0---0-0---0-0---0-0-|
g-6-6---4-4---4-4---2-2-|
d-6-6---6-6---4-4---4-4-|
a-0-0---0-0---0-0---0-0-|
e-x-x---x-x---x-x---x-x-|

AFTER "whos to say that we cant just fucking change it?"
                                           E
e-0-0-0-0-2-2-2-0-0-0-0-----------0-|
b-2-2-2-2-2-2-2-2-2-2-2-----------0-|
g-1-1-1-1-1-1-1-1-1-1-1-----------1-|
d-2-2-2-2-2-2-2-2-2-2-2---X-2---2---|
a-0-0-0-0-0-0-0-0-0-0-0-----------2-|
e-2-2-2-2-2-2-2-2-2-2-2-----------0-|

BEFORE "well i know it seems dramatic.."

e-0--------0--------0-|
b-0--------0--------0-|
g-6--X8--4--X8---1----|-X 16
d-6--------4--------2-|
a-0--------0--------2-|
e-X--------X--------0-|

for the last part of the song, its variations of the "i dont know where hes gonna park
that thing" melody and the E/A, E structure (with the hammer on the 2nd fret of the high
e string)

tommy
-tprovost@gmail.com
Tap to rate this tab
# A B C D E F G H I J K L M N O P Q R S T U V W X Y Z