Song name
# A B C D E F G H I J K L M N O P Q R S T U V W X Y Z

Kevin Devine - Probably tab

Help us improve GuitareTab! Take a short survey!
IMPORTANT: this is the acoustic version of this song, when i first posted this I didtn 
there was a version other than the acoustic version. Here it goes.

D=down
U=up

Intro:

    D U D U D U  D U D U D  <--- strumming pattern
E|------------------------|      (basically the same throughout song)
B|--7-7-7-7-7-7--7-7-7-7-7|
G|--8-8-8-8-8-8--8-8-8-8-8|   x2
D|--9-9-9-9-9-9--9-9-9-9-9|
A|--9-9-9-9-9-9--9-9-9-9-9|
E|--7-7-7-7-7-7--7-7-7-7-7|


verse:
same throughout untill bridge part at the end


E|----------------------------------|
B|--7----6-4----0----7---0--2--0--2-|
G|--8----7-5----1----8---1--3--1--3-| REPEAT THROUGHTOUT VERSE
D|--9----8-6----2----9---2--4--2--4-|
A|--9----8-6----2----9---2--4--2--4-|
E|--7----6-4----0----7---0--2--0--2-|

Bridge:
So I probably should say something to you...

E|-------------------------------------|
B|--7----6--4-4--0--7--0-2-4---2-0-2-7-|
G|--8----7--5-5--1--8--1-3-5---3-1-3-8-|
D|--9----8--6-6--2--9--2-4-6---4-2-4-9-|
A|--9----8--6-6--2--9--2-4-6---4-2-4-9-|
E|--7----6--4-4--0--7--0-2-4---2-0-2-7-|
            ^ ^

^=strum each once and hold


Thats basically it...play with the song to help get the chords down..thanks for looking 
my tab. I'll put the lyrics below...

-Christian Cremer


You probably dont wear your glasses
But you probably need them to read
You probably value your downtime
And you probably dont get much sleep

And you probably dont like the movies
But you probably go anyway
And you probably fight with your parents a lot
When you feel like theres nothing to say

And you probably dont care for punk rock
But you probably own Nevermind
And you probably dont talk to strangers
But youd wish they talk to all the time

So I probably should say something to you
But id probably ruin it then
Its best for both of us if I keep my mouth shut
And stay on my side of the train

got lyrics from
http://www.lyricsdownload.com/kevin-devine-probably-lyrics.html
Related for Probably tab