Song name
# A B C D E F G H I J K L M N O P Q R S T U V W X Y Z

Kevin Devine - Youll Only End Up Joining Them tab

-------------------------------------------------------------------------------
			     you'll only end up joining them - Kevin Devine
-------------------------------------------------------------------------------
Tabbed by: Nick Stola
Email: letingoffhapynes@aim.com

Tuning: capo on 5th



tonight i'm posed...
these days my hangman's...

e|-0---1---1--3-----------------------------------------------------------------|
B|-1---1---3--0-----------------------------------------------------------------|
G|-o---2---2--0-----------------------------------------------------------------|
D|-2---3------0-----------------------------------------------------------------|
A|-3---3------2-----------------------------------------------------------------|
E|------------3-----------------------------------------------------------------|


cause what used...
i was lonely so i...
my brother...
and i realized...

e|--1--3---------1--3--0--------------------------------------------------------|
B|--1--0------1--1--0--1--------------------------------------------------------|
G|--2--0---1--2--2--0--0--------------------------------------------------------|
D|--3--0---2--2--3--0--2--------------------------------------------------------|
A|--3--2---2-----3--2--3--------------------------------------------------------|
E|-----3------------3-----------------------------------------------------------|



i try to will...

e|----1--3--------1--3--------1---3--0---------------------------------------------|
B|----1--0-----1--1--0-----1--1---0--1---------------------------------------------|
G|----2--0--1--2--2--0--1--2--2---0--0---------------------------------------------|
D|----3--0--2--2--3--0--2--2--3---0--2---------------------------------------------|
A|----3--2--2-----3--2--2-----3---2--3---------------------------------------------|
E|-------3-----------3------------3------------------------------------------------|


and i cant say that...
later realize...
so as i inch towards...
i narrow noose or...



e|-----------3--1---------1---------------------------------------------------|
B|--1--4--1--0--1---------2---------------------------------------------------|
G|--4--1--2--0--2---------3---------------------------------------------------|
D|--2--3--2--0--3--3-2-0------------------------------------------------------|
A|--3--2-----2--3-------------------------------------------------------------|
E|-----------3----------------------------------------------------------------|



there it is
pretty simple
i think it sounds good but not perfect so e mail me 


Tap to rate this tab
# A B C D E F G H I J K L M N O P Q R S T U V W X Y Z