Song name
# A B C D E F G H I J K L M N O P Q R S T U V W X Y Z

Kevin Devine - Thanks tab

-------------------------------------------------------------------------------
			     Thanks - Kevin Devine
-------------------------------------------------------------------------------
Tabbed by: Nick Stola
Email: letingoffhapynes@aim.com

Tuning: standard - no capo



strumming is pretty simple so u can figure that out

enjoy



i never knew... (this is the main progression played throughout)


e|--2-----4---------------------------------------------------------------------|
B|--2--4--6---------------------------------------------------------------------|
G|--3--3--4---------------------------------------------------------------------|
D|--4--4--6---------------------------------------------------------------------|
A|--4--2--4---------------------------------------------------------------------|
E|--2---------------------------------------------------------------------------|


and when you get here...
its just the part...


e|--6--7-----------------------------------------------------------------------|
B|--7--7--11-------------------------------------------------------------------|
G|--8--8--11-------------------------------------------------------------------|
D|--8--9--11-------------------------------------------------------------------|
A|--6--9--9--------------------------------------------------------------------|
E|-----7-----------------------------------------------------------------------|


when you get here its so nice
jut the part when...



e|--6--6--7--7------9-------------------------------------------------------------|
B|--7--6--7--7--11--9-------------------------------------------------------------|
G|--8--7--8--7--11--10------------------------------------------------------------|
D|--8--8--9--9--11--11------------------------------------------------------------|
A|--6--8--9--9---9--11------------------------------------------------------------|
E|-----6--7--7------9-------------------------------------------------------------|


(end on)


e|--2-------------------------------------------------------------------------|
B|--2-------------------------------------------------------------------------|
G|--3-------------------------------------------------------------------------|
D|--4-------------------------------------------------------------------------|
A|--4-------------------------------------------------------------------------|
E|--2-------------------------------------------------------------------------|


Tap to rate this tab
# A B C D E F G H I J K L M N O P Q R S T U V W X Y Z