Song name
# A B C D E F G H I J K L M N O P Q R S T U V W X Y Z

Kevin Johansen - No Seas Insegura tab

Intro
G6...


 G6              G6              G6         G6    
--------------|--------------|-----------|------------||
--------------|--------------|-----------|------------||
--------------|--------------|-----------|------------||
--------------|--------------|-----------|------------||
--5-----------|--4-----------|--2--------|--0/4-------||
-----2h--3----|-----2h--3----|-----2--3--|------------||


Dsus2 A6 G6
No seas insegura,

Dsus2 A6 G6
eso dejámelo a mí

Dsus2 A6 G6
Hombres con armadura

Dsus2 A6 G6
abundan por aquí

G6...

Dsus2 A6 G6
No seas tan celosa,

Dsus2 A6 G6
no hay ninguna como vos

Dsus2 A6 G6
Además te ves preciosa

Dsus2 A6 G6
cuando el celoso soy yo

A6 D9 E G6
Y para qué te vas a ocultar,

A6 D9 E G6
si noy hay nada para disfrazar

G6...
Dsus2 A6 G6
No seas caradura,

Dsus2 A6 G6
yo ví cómo te miró

Dsus2 A6 G6
Chapa sin cerradura

Dsus2 A6 G6
fue lo que te prometió

A6 D9 E G6
Y para qué te vas a complicar,

A6 D9 E G6
si no hay nada para explicar

Dsus2 A6 G6
No seas tan segura,

Dsus2 A6 G6
eso dejámelo a mí...

G6...

Acordes

Dsus2:

E ----0-----
B ----3-----
G ----2-----
D ----0-----
A ----x-----
E ----x-----

A6:

E ----0-----
B ----5-----
G ----6-----
D ----7-----
A ----7-----
E ----x-----

G6:

E ----0-----
B ----3-----
G ----4-----
D ----5-----
A ----5-----
E ----x-----

D9:

E ----0-----
B ----3-----
G ----0-----
D ----2-----
A ----3-----
E ----x-----

E:

E ----0-----
B ----0-----
G ----1-----
D ----2-----
A ----2-----
E ----0-----

Puede variarse el E por
E9:

E ----2-----
B ----0-----
G ----1-----
D ----2-----
A ----2-----
E ----0-----

Tab by Gibzaki/bonzo
Tap to rate this tab
 
# A B C D E F G H I J K L M N O P Q R S T U V W X Y Z