Song name
# A B C D E F G H I J K L M N O P Q R S T U V W X Y Z

Kevin Lyttle - Turn Me On chords

Highlighted       Show chord diagrams
I don't what did the guys who posted the 1st version of this tab, but they must 
had something totally different in their minds.. anyway, it goes like this :

INTRO : C#m / B / C#m / B

REST OF THE SONG : C#m / B / C#m / B / A / A / A / B

I suggest to play it barrés chords, and with the muted times you can give some 
"groove" to your playing!

    C#m B   C#m B   A   A   A   B

E|--4---2---4---2---5---5---5---2--|
B|--5---4---5---4---5---5---5---4--|
G|--6---4---6---4---6---6---6---4--|
D|--6---4---6---4---7---7---7---4--|
A|--4---2---4---2---7---7---7---2--|
E|------------------5---5---5------|

I suggest as well to play with a reggae/dancehall or Zouk rythmic

    C#m         B

E|--4---x-x--4--2---x-x--2-|
B|--5---x-x--5--4---x-x--4-|
G|--6---x-x--6--4---x-x--4-|
D|--6---x-x--6--4---x-x--4-|
A|--4---x-x--4--2---x-x--2-|
E|------------------x-x----|
    v   v ^  v  v   v ^  v

v=down / ^=up 

Don't hesistate to give more strokes (muted or open) if you feel confident with 
this pattern, it will even sounds better.

C#m B C#m

B    C#m B C#m B 
 Oh yeaa......  ah ah ah.......

Is ah big dancehall song in know
A
Madzart alongside Kevin Little

You know how it is,
                   B
You Know how we go, You know

C#m                    B          
 For the longest while we jamming in the Party
C#m                   B
 And you wining in on me
        A
Pushing everything up
                     B
Right back on top of me


And keep going like this!

For any questions : campier@gmail.com
Tap to rate this tab
# A B C D E F G H I J K L M N O P Q R S T U V W X Y Z