Song name
# A B C D E F G H I J K L M N O P Q R S T U V W X Y Z

Kevin M Thomas - Society tab

Help us improve GuitareTab! Take a short survey!
SOCIETY INTO THE WILD
CAPO 2
CHORDS ARE FROM PREVIOUS TAB SOLO TABBED BY RICK CONEJO


C	    G	          Am	      C
Well its a mystery to me, we have agreed
 F  		G	  	    F
Witch we had agreed. And you think you
	G			Am	F
have to want more then you need. Till you
	G		Am
have it all you wont be free.

         F			C
Society, you crazy breed
		   G		Am
I hope youre not lonely without me

                        C                        G
When you want more then you have,
                          Am      		C
You think you need. And when you think more
	      F				G
Then you want youre thought will began to bleed.
F 		G		Am
I think I need to find a bigger place,
		   F			G
cause when you have more then you think
		Am
you need more space

       F			C
Society, you crazy breed
		G			Am
I hope youre not lonely without me
       F		        C
Society, crazy indeed
		G			Am
Hope youre not lonely without me


SOLO:


---------------------------------------------------|
---------------------------------------------------|
--------5-55--77----5-7-9---5-9-12-12/14-14-12-----|
---5h7---------------------------------------------|
---------------------------------------------------|
---------------------------------------------------|

-----------------------------------------------------|
-----------------------------------------------------|
---7-9-109-75h7-9-99--7-5--------5-5-7-77-5--------|
-------------------------------75h7------------7----|
-----------------------------------------------------|
-----------------------------------------------------|

----------------------------------------------------|
----------------------------------------------------|
---9-1010-10-10-9-9-9--9-9--7-5-7-7-7-5------------|
--------------------------------------------7-------|
----------------------------------------------------|
----------------------------------------------------|


Am                       G                     Am
Is dorms thinking more less less is more
                        C     F                           G
But if less is more, how you keeping score?
           		F		G			Am
Means for every point you make youre level drop
 C		G		Am
Kinda like a stunt from the top. You cant do that

F			C
Society, youre a crazy breed

 G 			               Am
I hope youre not lonely without me
F		C
Society, crazy indeed
G		                           Am
Hope youre not lonely. Without me
F                        C
Society, have mercy on me
G				Am
I hope youre not angry if I disagree
F                      Am
Society, crazy indeed
G						Am
Hope youre not lonely.Without me
Related for Society tab