Song name
# A B C D E F G H I J K L M N O P Q R S T U V W X Y Z

Kevin Macleod - Look Busy tab

Intro - Only play this the first time through

E|-----------|
B|-----------|
G|-----------|
D|-----------|
A|--------2--|
E|--3--5-----|



Verse - Repeat this until song is over

E|---------------------------------------------------------------------------------|
B|---------------------------------------------------------------------------------|
G|---------------------------------------------------------------------------------|
D|--5--5--4--5--5--4--5--5--4--5--2--3-----------------2--3--3--2--0--2--2--3--4---|
A|--------------------------------------3--5--5--4--5------------------------------|
E|---------------------------------------------------------------------------------|



Verse (cont'd)

E|-----------------------------------------------------------------------|
B|-----------------------------------------------------------------------|
G|-----------------------------------------------------------------------|
D|--5--5--4--5--5--4--5--5--4--5--2--3-----------------2--3--3--2--0-----|
A|--------------------------------------3--5--5--4--5-----------------3--|
E|-----------------------------------------------------------------------|


Kevin Macleod Website: http://incompetech.com/
Tap to rate this tab
 
# A B C D E F G H I J K L M N O P Q R S T U V W X Y Z