Song name
# A B C D E F G H I J K L M N O P Q R S T U V W X Y Z

Kevin Michael - We All Want The Same Thing tab

This is the basis for the whole song. Feel free to improve!


|--3-----------------------3-----------------------|
|--4-----------------------4-----------------------|
|--5-----------------------5-----------------------|
|--5-----------------------5-----------------------|
|-----3--3--3--3--3--3--3-----3--3--3--3--3--3-----|
|-----------------------------------------------3--|
                                                     
|--------------------------------------------------|
|--------------------------------------------------|
|--1-----------------------1-----------------------|
|--3-----------------------3-----------------------|
|--3-----------------------3-----------------------|
|--1--1--1--1--1--1--1--1--1--1--1--1--1--1--3--3--|

|--3-----------------------3-----------------------|
|--4-----------------------4-----------------------|
|--5-----------------------5-----------------------|
|--5-----------------------5-----------------------|
|-----3--3--3--3--3--3--3-----3--3--3--3--3--3--3--|
|--------------------------------------------------|

|--------------------------------------------------|
|--------------------------------------------------|
|--4-----------------------1-----------------------|
|--5-----------------------3-----------------------|
|--5-----------------------3-----------------------|
|--3--3--3--3--3--3--3--2--1--1--1--1--1--1--3--3--|
Tap to rate this tab
# A B C D E F G H I J K L M N O P Q R S T U V W X Y Z