Song name
# A B C D E F G H I J K L M N O P Q R S T U V W X Y Z

Kevin Rudolf - Let It Rock tab

Help us improve GuitareTab! Take a short survey!
Kevin Rudolf ft. Lil Wayne - Let it rock

Riff played throughout the whole song

E|-----10-10----12----12-13------10-10----13-12-10---|
B|--10-------10----10---------10-------10------------|
G|---------------------------------------------------|
D|---------------------------------------------------|
A|---------------------------------------------------|
e|---------------------------------------------------|

E|-----10-10----12----10-12------10-10----13-12-10---|
B|--10-------10----10---------10-------10------------|
F|---------------------------------------------------|
D|---------------------------------------------------|
A|---------------------------------------------------|
e|---------------------------------------------------|


Verse & Chorus Guitar Riff:

E|--------------------|
B|--------------------|
G|------------------7-|
D|--3-------5-------7-|
A|--3-------5-------5-|
e|--1-------3---------|
Related for Let It Rock tab