Song name
# A B C D E F G H I J K L M N O P Q R S T U V W X Y Z

Kevin Rudolf - I Made It tab

This tab is obviously for the electric guitar which is played in many parts through out 
song.
Email me or comment below if you need any help. adrian.bnd@hotmail.com
e|------------------------------------------------------------|
B|------------------------------------------------------------|
G|-7~---9~--10~---(12~)--14~---17~--19-XX-19-X-19-X-19-19-19\-|
D|-7~---9~--10~---(12~)--14~---17~--19-XX-19-X-19-X-19-19-19\-|NO SLIDE CHORD
A|-5~---7~--9~----(10~)--12~---15~--17-XX-17-X-17-X-17-17-17\-| ON EVEN TIMES
E|------------------------------------------------------------|
            5TH TIME LEAVE OUT ( )

e|-------------------------------------------------|
B|-------------------------------------------------|
G|-7~---9~--10~---12~--14~---9~--7-XX-7-X-7-X-7-7\-| X2
D|-7~---9~--10~---12~--14~---9~--7-XX-7-X-7-X-7-7\-| () - PLAY SECOND TIME
A|-5~---7~--9~----10~--12~---7~--5-XX-5-X-5-X-5-5\-|
E|---------------(10)-(12)--(7)--5-XX-5-X-5-X-5-5\-|

e|------------------------------------------------------------|
B|------------------------------------------------------------|
G|-7~---9~--10~---12~--14~---17~--19-XX-19-X-19-X-(19-19-19\)-| X3
D|-7~---9~--10~---12~--14~---17~--19-XX-19-X-19-X-(19-19-19\)-|( ) DON'T PLAY
A|-5~---7~--9~----10~--12~---15~--17-XX-17-X-17-X-(17-17-17\)-|    1ST TIME
E|------------------------------------------------------------|

e|-------------------------------------------------|
B|-------------------------------------------------|
G|-7~---9~--10~---12~--14~---9~--7-XX-7-X-7-X-7-7\-| () - PLAY SECOND TIME
D|-7~---9~--10~---12~--14~---9~--7-XX-7-X-7-X-7-7\-|
A|-5~---7~--9~----10~--12~---7~--5-XX-5-X-5-X-5-5\-|
E|---------------(10)-(12)--(7)--5-XX-5-X-5-X-5-5\-|

e|---------------------------------------|
B|-----------------------------------15--|
G|-7~---9~--10~---12v-12h14v--12-14--17b-|
D|-7~---9~--10~--------------------------|
A|-5~---7~--9~---------------------------|
E|---------------------------------------|

e|----------------------------------------------------------|
B|----------------------------------------------------------|
G|-7~---9~--10~---12~--14~---17~--19-XX-19-X-19-X-19-19-19\-| X2
D|-7~---9~--10~---12~--14~---17~--19-XX-19-X-19-X-19-19-19\-|
A|-5~---7~--9~----10~--12~---15~--17-XX-17-X-17-X-17-17-17\-|
E|----------------------------------------------------------|

e|-------------------------------------------------|
B|-------------------------------------------------|
G|-7~---9~--10~---12~--14~---9~--7-XX-7-X-7-X-7-7\-| X2
D|-7~---9~--10~---12~--14~---9~--7-XX-7-X-7-X-7-7\-| () - PLAY SECOND TIME
A|-5~---7~--9~----10~--12~---7~--5-XX-5-X-5-X-5-5\-|
E|---------------(10)-(12)--(7)--5-XX-5-X-5-X-5-5\-|

e|---------------------------------------------------------|
B|---------------------------------------------------------|
G|-7~---9~--10~---12~--14~---17~--19-XX-19-X-19-X-(19-19\)-| X2
D|-7~---9~--10~---12~--14~---17~--19-XX-19-X-19-X-(19-19\)-| ( ) DON'T PLAY
A|-5~---7~--9~----10~--12~---15~--17-XX-17-X-17-X-(17-17\)-|     1ST TIME
E|---------------------------------------------------------|

e|-------------------------------------|
B|-------------------------------------|
G|-7~---9~--10~---(12~)--14~---17~--19-|
D|-7~---9~--10~---(12~)--14~---17~--19-|
A|-5~---7~--9~----(10~)--12~---15~--17-|
E|-------------------------------------|
              LEAVE OUT ( )

e|-------------------------------------------------|
B|-------------------------------------------------|
G|-7~---9~--10~---12~--14~---9~--7-XX-7-X-7-X-7-7\-| () - PLAY SECOND TIME
D|-7~---9~--10~---12~--14~---9~--7-XX-7-X-7-X-7-7\-|
A|-5~---7~--9~----10~--12~---7~--5-XX-5-X-5-X-5-5\-|
E|---------------(10)-(12)--(7)--5-XX-5-X-5-X-5-5\-|

e|---------------------------------------|
B|-----------------------------------15--|
G|-7~---9~--10~---12v-12h14v--12-14--17b-|
D|-7~---9~--10~--------------------------|
A|-5~---7~--9~---------------------------|
E|---------------------------------------|

e|-------------------------------------------------------|
B|-------------------------------------------------------|
G|-7~---9~--10~---12~--14~---17~--19-XX-19-X-19-X-19-19\-|
D|-7~---9~--10~---12~--14~---17~--19-XX-19-X-19-X-19-19\-|
A|-5~---7~--9~----10~--12~---15~--17-XX-17-X-17-X-17-17\-|
E|-------------------------------------------------------|

For the little bend part, you want to play the two notes more than once. I'm pretty sure 
about 8 times.
If this seems a little bit confusing to anyone, please comment below.
Tap to rate this tab
 
# A B C D E F G H I J K L M N O P Q R S T U V W X Y Z