Song name
# A B C D E F G H I J K L M N O P Q R S T U V W X Y Z

Kevin Rudolf - She Can Get It tab

-------------------------------------------------------------------------------
			     SONG NAME - Band Name
-------------------------------------------------------------------------------
Artist:      Kevin Rudolf
Song:        She can get it
Tabbed by:   neuroxik
Email:       neuroxik [-at] gmail [dot-] com (avoiding spambots)

Tuning:      Standard Tuning (EADGBe)

Note:        I'm not going to tab it all, but the only tab I found was wrong
	     so I decided to stleast share the intro.

Intro:
Electric guitar, slight distortion
(2 guitars merged)
e|-------|----------|-------|--------------|-----------|---------------------|
B|-------|----------|-------|--------------|-----------|---------------------|
G|-------|----------|-------|--------------|-----------|---------------------|
D|----2--|----2---4-|---5---|---5---9---10-|----10-----|-2--2-2--2-2--2-2--2-|
A|-------|----------|-------|--------------|-----------|-2--2-2--2-2--2-2--2-|
E|--0----|--0---2---|-3-----|-3---7---8----|-8-----8\s-|-0--0-0--0-0--0-0--0-|


e|------------|----------------|------------|---------------|----------------|
B|------------|----------------|------------|---------------|----------------|
G|------------|----------------|------------|---------------|----------------|
D|---2------2-|---4---5------5-|---9---(10)-|---10-------5--|---5---4--------|
A|------------|----------------|------------|---------------|----------------|
E|-0------0---|-2---3------3---|-7---8------|-8----8\s-3----|-3---2----------|

[repeat]
Tap to rate this tab
 
# A B C D E F G H I J K L M N O P Q R S T U V W X Y Z