Song name
# A B C D E F G H I J K L M N O P Q R S T U V W X Y Z

Kevin Sherwood Elena Siegman - Pareidolia tab

You'll need to get your guitar tuned in standard A [AEADGB] and hope you enjoy my first tab!
B-------------------------------------------------------------------------|
G-------------------------------------------------------------------------|
D-------------------------------------------------------------------------|
A--------------------------------4----------------------------------------|
E---1-0-2-0-3-2-0-1-0-2-0-3-2-0-1-1-0-2-0-3-2-0-1-0-2-0-3-----------------|
A-------------------------------------------------------------------------|

B--------------------------------------------------------------------------------------|
G--------------------------------------------------------------------------------------|
D--------------------------------------------------------------------------------------|
A----------------------------------------------------------------4---------------------|
E--------------------------------------------------------------------------------------|
A---1-0-2-0-3-2-0-1-0-2-0-3-2-0-1-4-1-0-2-0-3-2-0-1-0-2-0-3-2-0-1----------------------| x4

I realize there's a little bit more but I don't have it yet but this is the only tab for 
it here P.S. USE PULL OFFS
Tap to rate this tab
 
# A B C D E F G H I J K L M N O P Q R S T U V W X Y Z