Song name
# A B C D E F G H I J K L M N O P Q R S T U V W X Y Z

Kevin Shields - Ikebana tab

I do NOT take credit for this, all credit goes to 'loomer' at the My Bloody Valentine 
As it was difficult for me to find this tab I thought it must be shared for many who are 
to find it.

Tuning: EADGBC

Riff 1 (4x):
C-----14-------|
B---------12---|
G-12-----------|
D--------------|
A--------------|
E--------------|

Riff 2 (4x):
C-----12-------|
B---------12---|
G-12-----------|
D--------------|
A--------------|
E--------------|

Repeat Riffs 1 and 2, then:

Riff 3 (4x):
C------------|
B-----8------|
G-------10---|
D-10---------|
A------------|
E------------|

Riff 4 (4x):
C----------|
B----7-----|
G------7---|
D-9--------|
A----------|
E----------|

Riff 5 (4x):
C---------11---|
B-----12-------|
G--------------|
D-12-----------|
A--------------|
E--------------|

Riff 6 (4x):
C---------12--|
B-----12------|
G-------------|
D-12----------|
A-------------|
E-------------|


Riff 7 (4x):
C-----14-------|
B---------13---|
G-12-----------|
D--------------|
A--------------|
E--------------|

Riff 8 (4x):
C---------14-|
B-----15-----|
G-12---------|
D------------|
A------------|
E------------|

Riff 9 (4x):
C-------7-|
B----8----|
G-5-------|
D---------|
A---------|
E---------|

Then, go back to riff 4 (4x) and then, riff 8 (16x), then back to the beginning.  The 
on the track usually begins right after the repeat playings of riffs 1 and 2.  Any 
for improving this tab would be greatly appreciated
Tap to rate this tab
 
# A B C D E F G H I J K L M N O P Q R S T U V W X Y Z