Keyshia Cole - Heaven Sent tab

Standard Tuning:                            (Just Intro Guitar)

By ear from official video: 

http://www.youtube.com/watch?v=POkQXeTv7-4&feature=related

e------------------------------1---------]
B-------------4--------------2-----------]
G-----------3--------------1-------------]
D---------4--------------3---------------]
A-------2--------------1-----------------]
E----------------------------------------]



e-------------1--------------------------]
B-----------2----------------8-------6---]
G---------1----------------7-------5-----]
D-------3----------------9-------7-------]
A----------------------7-------5---------]
E----------------------------------------]


e---------------------------------------]
B-------------4-------2-----------------]
G-----------3-------3-------------------]
D---------4-------3---------------------]
A-------2-------1-----------------------]
E---------------------------------------]
Tap to rate this tab
 
# A B C D E F G H I J K L M N O P Q R S T U V W X Y Z