Song name
# A B C D E F G H I J K L M N O P Q R S T U V W X Y Z

Keziah Jones - Cutest Lips tab

-------------------------------------------------------------------------------
			     Cutest Lips - Keziah Jones
-------------------------------------------------------------------------------
Tabbed by: Cedr

Tuning: Standard Tuning

Verse : 

e|--7--------5-------1----------3---------------------------------------------------------------|
B|--8--------6-------1----------3---------------------------------------------------------------|
G|--9--------7-------2----------4---------------------------------------------------------------|
D|--9--------7-------3----------5---------------------------------------------------------------|
A|--7--------5-------3----------5---------------------------------------------------------------|
E|--7--------5-------1----------3---------------------------------------------------------------|
	  put some flowers in your hair....

Chorus :
					
e|--5--------------5----10----------------------------------------------------------------|
B|--5--------------5----10----------------------------------------------------------------|
G|--5--------------5----10----------------------------------------------------------------|
D|--7--------------5----(0)---------------------------------------------------------------|
A|--7--------------3----(0)---------------------------------------------------------------|
E|--5--------------3----------------------------------------------------------------------|
     You got the cutest lips I've ever seen....
Tap to rate this tab
 
# A B C D E F G H I J K L M N O P Q R S T U V W X Y Z