Song name
# A B C D E F G H I J K L M N O P Q R S T U V W X Y Z

Khalil Ramos - Kung Ako Ba Siya tab

Intro only
Standard Tuning :)
Tab By:Joshua A. Gamir

e|---------------|-------------|  
b|---------------|-------------|  
G|-----0-0----0-0|---0-0----0-0|  
D|------4-0----4-|--0-4-0--0-4-|  
A|---5-------5---|-3------3----|  
E|--3-------3----|-------------|  

e|---------------|------|  
b|---------------|------|  
G|-----0-0----0-0|---0-0|  
D|------4-0----4-|--0-4-|  
A|---5-------5---|-3----|  
E|--3-------3----|------|  

e|--3--|
b|-----|
G|-----|
D|-----|
A|-----|
E|-----|

Tap to rate this tab
 
# A B C D E F G H I J K L M N O P Q R S T U V W X Y Z