Song name
# A B C D E F G H I J K L M N O P Q R S T U V W X Y Z

Khold - Dd tab

Title:		Død
Artist:		Khold
Album:		Mørke Gravers Kammer (2004)
Tab:		Kristoffer Salamonsen

Tuning: I prefer to play it in DROP D, 
but khold tune their guitars (from low to high) D,G,C,F,A,D. 
Do as you want. Simpler to use drop d

Riff1:
e|---------------------------------------------------|
B|---------------------------------------------------|
G|---------------------------------------------------|
D|---------------------------------------------------|x4
A|--4\3-3-3-3-3-3-3-3-3-4\3-3-3-3-3-3-3-3-3-1-1-1-1--|
D|--4\3-3-3-3-3-3-3-3-3-4\3-3-3-3-3-3-3-3-3-1-1-1-1--|


Riff2:
e|-------------------------------------------------------------------|
B|-------------------------------------------------------------------|
G|-------------------------------------------------------------------|
D|-------------------------------------------------------------------|x4
A|--0-0-0-0-0-0-4-3-0-0-0-0-0-0-4-3-0-0-0-0-0-0-4-3-0-0-0-0-1-1-1-1--|
D|--0-0-0-0-0-0-4-3-0-0-0-0-0-0-4-3-0-0-0-0-0-0-4-3-0-0-0-0-1-1-1-1--|


Riff3a:
e|-------------------------------------|
B|-------------------------------------|
G|-------------------------------------|
D|-------------------------------------|x2
A|----5-4---5-4---------5-4---5-4------|
D|--0-----0-----0-2^--0-----0-----2-3--|


Riff3b:
e|------------------------------------|
B|------------------------------------|
G|------------------------------------|
D|------------------------------------|x2
A|--0-4-3-0-4-3-0-1--0-4-3-0-4-3-4-5--|
D|--0-4-3-0-4-3-0-1--0-4-3-0-4-3------|


				Lineup

	Riff 1		(x4)
	Riff 2		(x4)
	Riff 3a		(x2)
	Riff 3b		(x2)
	Riff 3a		(x2)
	Riff 3b		(x2)
	Riff 3a		(x2)
	Riff 2		(x6)
	Riff 3a		(x2)
	Riff 3b		(x2)
	Riff 3a		(x2)
	Riff 3b		(x2)

Very simple, tabbed this song on 10 minutes.
...
Tap to rate this tab
# A B C D E F G H I J K L M N O P Q R S T U V W X Y Z