Song name
# A B C D E F G H I J K L M N O P Q R S T U V W X Y Z

Khriz Y Angel - Ven Bailalo tab

			     Ven Bailalo - Khriz y Angel
-------------------------------------------------------------------------------
Tabbed by: Miguel Cabrera
Email:dammit169@hotmail.com

120♪ in 2/4 time signature 

E|----12-11----------12-11----------11----------|
B|--14-----14------14-----14---12-14--14-12-----|
G|13---------13^-14---------14^-----------------|      all these notes are
D|----------------------------------------------|      8th notes
A|----------------------------------------------|    ^ means its a 
E|----------------------------------------------|      dotted 8th note


E|11-12-14-14-12-11-9-7-------------------------|
B|----------------------------------------------|
G|----------------------------------------------|   all these notes are  
D|----------------------------------------------|   16th notes
A|----------------------------------------------|
E|----------------------------------------------|


repeat as many times as needed
Tap to rate this tab
# A B C D E F G H I J K L M N O P Q R S T U V W X Y Z