Song name
# A B C D E F G H I J K L M N O P Q R S T U V W X Y Z

Kick Axe - Hunger tab

Hunger - Kick Axe (A.K.A Spectre General for the Transformers Movie OST; it sounded less 
apparently).

Tabbed by Scarface88

Start with plenty of distortion:

e|---------------------------------------------------------------------------|
B|---------------------------------------------------------------------------|
G|-----0-2-3-2-0----0---0--0-------------------------------------------------|
D|-0h2-0-2-3-2-0--2-0-2-0--0-2-----------------------------------------------|
A|-0h2------------2---2------2-----------------------------------------------|
E|---------------------------------------------------------------------------|

e|---------------------------------------------------------------------------|
B|---------------------------------------------------------------------------|
G|-----0-2-3-2-0----0---0--2-------------------------------------------------|
D|-0h2-0-2-3-2-0--2-0-2-0--2-2-----------------------------------------------|
A|-0h2------------2---2------2-----------------------------------------------|
E|---------------------------------------------------------------------------|

Then the other instruments begin playing

e|---------------------------------------------------------------------------|
B|---------------------------------------------------------------------------|
G|--3-2-0----0---0-0---------------------------------------------------------|
D|--3-2-0--2-0-2-0-0-2-------------------------------------------------------|
A|---------2---2-----2-------------------------------------------------------|
E|---------------------------------------------------------------------------|

e|---------------------------------------------------------------------------|
B|-----------------------3-3-3-2-3-2-----------------------------------------|
G|-----0-2-3-2-0----0----2-2-2-2-2-2-----------------------------------------|
D|-0h2-0-2-3-2-0--2-0-2--------------2---------------------------------------|
A|-0h2------------2---2--------------2---------------------------------------|
E|---------------------------------------------------------------------------|
Tap to rate this tab
 
# A B C D E F G H I J K L M N O P Q R S T U V W X Y Z