Song name
# A B C D E F G H I J K L M N O P Q R S T U V W X Y Z

Kicked In The Head - Cannonball tab

this should be it. Im going by ear so idk if its 100% right but sounds fine.


(intro)
e-------------------------------------------------------------------5~
B-------------------------------------------------------------------5~
G----------------------------------5xx5xx5xx5xx5555-----------------6~
D--7xx7xx7xx7xx77777xx7xx7xx7xx77775xx5xx5xx5xx55555xx5xx5xx5xx5555-7~
A--7xx7xx7xx7xx77777xx7xx7xx7xx77773xx3xx3xx3xx33335xx5xx5xx5xx5555-7~
E--5xx5xx5xx5xx55555xx5xx5xx5xx5555----------------3xx3xx3xx3xx3333-5~

(fill 1)
e---------------------5~
B-----------5-5h8p5---5~
G----5---/7---------7-6~
D--7---5--------------7~
A---------------------7~
E---------------------5~

(fill 2)
e-------------5~
B-------------5~
G----5--------6~
D--7---7-5~---7~
A----------7~-7~
E-------------5~

(verse)
e--5~---3~---3~---|
B--5~---3~---3~---|
G--6~---5~---4~---|
D--7~---5~---5~---|
A--7~---3~---5~---|
E--5~--------3~---|

(fill before chorus)
e--5---5-7-\10~-|
B----7----------|
G---------------|
D---------------|
A---------------|
E---------------|

(Chorus)
e----------------------|
B----------------------|
G--------5xx-----77775-|
D--77xx775xx5555577775-|
A--77xx773xx5555555553-|
E--55xx55---33333------|

(fill after chorus)
e-----------------------|
B--8b10~~-8-5---5----5~-|
G-------------7----7----|
D-----------------------|
A-----------------------|
E-----------------------|

(bridge)
e--
B---------------------------------|
G--5------5------5----------------|
D--5-5-7--5-5-7--5-5-7-5-33333333-|
A--3-5-7--3-5-7--3-5-7-5-33333333-|
E----3-5----3-5----3-5-3-11111111-|


(first fill after bridge)
e-----------------------|
B--8b10~~-8-5---5----5~-|
G-------------7----7----|
D-----------------------|
A-----------------------|
E-----------------------|

(second fill after bridge)
e--------------------------------------------------------------------------------|
B--------------------------------------------------------------------------------|
G----------------------------------------------------------------(------------2--|
D--7-5-2-0-0-2p0---------7-5-2-0-0-2p0--------0~-----------------(------------2--|
A----------------3p0-------------------3p0-3~----0-3p0-3p0-3p0---(finish on --0--|
E--------------------3~----------------------------------------3-----------------|

~victimdumper
Tap to rate this tab
# A B C D E F G H I J K L M N O P Q R S T U V W X Y Z