Song name
# A B C D E F G H I J K L M N O P Q R S T U V W X Y Z

Kicking Daisies - Go tab

Go
Kicking Daisies
Tablature transcribed by Ben Spremulli

WEBSITE: http://www.kickingdaisies.com/


Key:
Hammer-on :  >
Hammer-off  : <
Vibrato  :  \/\/\/
Slide-Up :  =
Whammy down : *
Super whammy (Just shake the bar as hard and fast as you can) : ~~~~

Intro (Palm Mute the whole thing)

E-----------------------------------------------------------------5---------------|
B--------7------7-------7--5------7----------7-------5---7------------------------|
G------------7------7----------7------7--7-------7--------------------------------|
D---------------------------------------------------------------------------------|
A---------------------------------------------------------------------------------|
E---------------------------------------------------------------------------------|

Repeat until Verse

Intro Harmonies (Duran's part)

E------------------------------------------------------------------------------10---|
B-------12--------12-------12---10-------12------------12-------10--12--------------|
G-------------11-------11-------------11-------11--11-------11----------------------|
D-----------------------------------------------------------------------------------|
A-----------------------------------------------------------------------------------|
E-----------------------------------------------------------------------------------|

Chord Progression (Played over intro)

B min.
A maj.
G maj.
E min.

E-----7-------5------5------0---------------------------------------------------------|
B-----7-------5------5------0---------------------------------------------------------|
G-----7-------6------4------0---------------------------------------------------------|
D-----9-------7------5------2---------------------------------------------------------|
A-----9-------7------5------2---------------------------------------------------------|
E-----7-------5------3------0---------------------------------------------------------|


Verse Guitar (lead part) Repeat twice

E---------------------------------------------------------------------------------|
B---------------------------------------------------------------------------------|
G---------------------------------------------------------------------------------|
D---------------------------------------------------------------------------------|
A--------- ---454-----------------------------------------------------------------|
E-777777777777---53333333355555555------------------------------------------------|

Verse Guitar 2 (second part of the verse) Play the chords open, but don't let them ring 
Repeat twice

E---------------------------------------------------------------------------------|
B---------------------------------------------------------------------------------|
G---------------------------------------------------------------------------------|
D--9--9--9--9--9--9---7-7-7---5--5--5--5--2--2--2--2------------------------------|
A--9--9--9--9--9--9---7-7-7---5--5--5--5--2--2--2--2------------------------------|
E--7--7--7--7--7--7---5-5-5---3--3--3--3--0--0--0--0------------------------------|

Pre-chorus (The 3 5 5's are G chords, the typing is off)

E----------------------------------------------------------------------------------|
B----------------------------------------------------------------------------------|
G----------------------------------------------------------------------------------|
D -------------------------5-5-5-5-5-5-5-5-5---------------------------------------|
A -------------------------5-5-5-5-5-5-5-5-5---------------------------------------|
E -0>2-0>2-0>2-0>2-0>2-2--3-3-3-3-3-3-3-3-3----------------------------------------|


JUST GO! (for the chorus, let the chords ring, also make sure to hit the same jumps and 
that the drums do) Repeat twice

E---------------------------------------------------------------------------------|
B-=12\/\/\/-----------------------------------------------------------------------|
G---------------------------------------------------------------------------------|
D---------------------------------------------------------------------------------|
A-----------------9-9-9---7-7---5-5-5-5-5--7-7-7-7-7------------------------------|
E-----------------7-7-7---5-5---3-3-3-3-3--5-5-5-5-5------------------------------|


Play Pre-chorus chords after chorus

E----------------------------------------------------------------------------------|
B----------------------------------------------------------------------------------|
G----------------------------------------------------------------------------------|
D -------------------------5-5-5-5-5-5-5-5-5---------------------------------------|
A -------------------------5-5-5-5-5-5-5-5-5---------------------------------------|
E -0>2-0>2-0>2-0>2-0>2-2--3-3-3-3-3-3-3-3-3----------------------------------------|


And back to the intro again

E-----------------------------------------------------------------5---------------|
B--------7------7-------7--5------7----------7-------5---7------------------------|
G------------7------7----------7------7--7-------7--------------------------------|
D---------------------------------------------------------------------------------|
A---------------------------------------------------------------------------------|
E---------------------------------------------------------------------------------|

Now the verse riff 1, followed by verse riff 2, into pre-chorus

E---------------------------------------------------------------------------------|
B---------------------------------------------------------------------------------|
G---------------------------------------------------------------------------------|
D---------------------------------------------------------------------------------|
A--------- ---454-----------------------------------------------------------------|
E-777777777777---53333333355555555------------------------------------------------|

E---------------------------------------------------------------------------------|
B---------------------------------------------------------------------------------|
G---------------------------------------------------------------------------------|
D--9--9--9--9--9--9---7-7-7---5--5--5--5--2--2--2--2------------------------------|
A--9--9--9--9--9--9---7-7-7---5--5--5--5--2--2--2--2------------------------------|
E--7--7--7--7--7--7---5-5-5---3--3--3--3--0--0--0--0------------------------------|

E---------------------------------------------------------------------------------|
B---------------------------------------------------------------------------------|
G---------------------------------------------------------------------------------|
D------4--------4------4-------4--------4-4--- 5-5-5-5-5-5-5-5-5------------------|
A------4--------4------4-------4--------4-4--- 5-5-5-5-5-5-5-5-5------------------|
E--0->-2---0->--2--0 >-2---0->-2---0->-2-2----3-3-3-3-3-3-3-3-3-------------------|

Just Go!

E---------------------------------------------------------------------------------|
B-=12\/\/\/-----------------------------------------------------------------------|
G---------------------------------------------------------------------------------|
D---------------------------------------------------------------------------------|
A-----------------9-9-9---7-7---5-5-5-5-5--7-7-7-7-7------------------------------|
E-----------------7-7-7---5-5---3-3-3-3-3--5-5-5-5-5------------------------------|

Now play the pre-chorus riff

E---------------------------------------------------------------------------------|
B---------------------------------------------------------------------------------|
G---------------------------------------------------------------------------------|
D------4--------4------4-------4------- 4-4---   5-5-5-5-5-5-5-5-5----------------|
A------4--------4------4-------4------- 4-4---   5-5-5-5-5-5-5-5-5----------------|
E--0->-2---0->--2--0 >-2---0->-2---0->-2-2----3-3-3-3-3-3-3-3-3-------------------|

Now the bridge kicks in


Bridge riff: (Hit all 12th fret harmonics here to get that ringing out sound)

E---12-----------------------------------12--------------------------------------------|
B------12--------------12------------------12-------------12---------------------------|
G---------12****-----------12------------------12****---------12-----------------------|
D----------------------------12****----------------------------12~~~~~~----------------|
A--------------------------------------------------------------------------------------|
E--------------------------------------------------------------------------------------|

If you would like to take a shot at the solo, email me at benspremulli@gmail.com, and I 
send you either video lessons or tabs.

Back to intro riff. Remember to add the break before the next JUST GO!

E---------------------------------------------------------------------------------|
B-=12\/\/\/-----------------------------------------------------------------------|
G---------------------------------------------------------------------------------|
D---------------------------------------------------------------------------------|
A-----------------9-9-9---7-7---5-5-5-5-5--7-7-7-7-7------------------------------|
E-----------------7-7-7---5-5---3-3-3-3-3--5-5-5-5-5------------------------------|


On the last chorus, instead of hitting the A as the last chord, every other time around 
hit an E min.

Then play the pre-chorus one more time

and then....

JUST GO!

And then close it with playing the intro riff once

E-----------------------------------------------------------------5---------------|
B--------7------7-------7--5------7----------7-------5---7------------------------|
G------------7------7----------7------7--7-------7--------------------------------|
D---------------------------------------------------------------------------------|
A---------------------------------------------------------------------------------|
E---------------------------------------------------------------------------------|

And that's how to play Go =)
Tap to rate this tab
# A B C D E F G H I J K L M N O P Q R S T U V W X Y Z