Song name
# A B C D E F G H I J K L M N O P Q R S T U V W X Y Z

Kicking Daisies - Scars tab

Scars
Kicking Daisies
Tablature transcribed by Ben Spremulli

KEY:

Key:
Hammer-on :  >
Hammer-off  : <
Slide-Up :  =
Slide-Down :  #

Pedals Used:
Banshee Talkbox (RockTron)
Compression Sustainer (Boss)

Intro/Verse

D-------------------------------------------------------------|
A-------------------------------------------------------------|
F-------------------------------------------------------------|
C-------------------------------------------------------------|
G--0-0-0----4--2----------------0-0-0----6-6=7-7--9>11<9>11---|
D--------0--------0-0-0-0-0-0-0-------0-----------------------|


Pre-Chorus (Rhythm part)

D--------------------------------------------------------|
A--------------------------------------------------------|
F--------------------------------------------------------|
C--6-----7-----4-----6-----0---2222222222222222----------|
G--7-----4-----3-----7-----1---0000000000000000----------|
D--------------------------------------------------------|


Pre-Chorus (Lead part)

D--------------------------------------------------------|
A--------------------------------------------------------|
F--999999999999999999999999999999999999999999999999------|
C--------------------------------------------------------|
G--------------------------------------------------------|
D--------------------------------------------------------|

Continued

D-0000000000000000----------------------------------------|
A-9999999999999999----------------------------------------|
F-9999999999999999----------------------------------------|
C---------------------------------------------------------|
G---------------------------------------------------------|
D---------------------------------------------------------|


Chorus (Play octave chords if you'd like, otherwise you can just play the single notes)

D--------------------------------------------------------|
A--------------------------------------------------------|
F--------------------------------------------------------|
C--------------------------7-7-777-9-9-999---------------|
G--7--7--9-11-9-11-6--7-9--7-7-777-9-9-999---------------|
D--------------------------5-5-555-7-7-777---------------|


Chorus Part 2

D----------------------------------------------------------|
A----------------------------------------------------------|
F--------------------------------6-------------------------|
C------------------------------6--6-----4------7-----------|
G--7--7--9-11-9-11-6--7-9--4-4---------4-4----7-7---5-5-5--|
D------------------------------------2------5--------------|


Chorus Part 3

D----------------------------------------------------------|
A----------------------------------------------------------|
F----------------------------------------------------------|
C----------------------------7------10---------------------|
G--7--7--9-11-9-11-6--7-9---7-7---10--10-------------------|
D-------------------------5------8------8#-----------------|


Back to the intro

D-------------------------------------------------------------|
A-------------------------------------------------------------|
F-------------------------------------------------------------|
C-------------------------------------------------------------|
G--0-0-0----4--2----------------0-0-0----6-6=7-7--9>11<9>11---|
D--------0--------0-0-0-0-0-0-0-------0-----------------------|


Into the verse

D-------------------------------------------------------------|
A-------------------------------------------------------------|
F-------------------------------------------------------------|
C-------------------------------------------------------------|
G--0-0-0----4--2----------------0-0-0----6-6=7-7--9>11<9>11---|
D--------0--------0-0-0-0-0-0-0-------0-----------------------|


Then the pre-chorus

Pre-Chorus (Rhythm part)

D--------------------------------------------------------|
A--------------------------------------------------------|
F--------------------------------------------------------|
C--6-----7-----4-----6-----0---2222222222222222----------|
G--7-----4-----3-----7-----1---0000000000000000----------|
D--------------------------------------------------------|


Pre-Chorus (Lead part)

D--------------------------------------------------------|
A--------------------------------------------------------|
F--999999999999999999999999999999999999999999999999------|
C--------------------------------------------------------|
G--------------------------------------------------------|
D--------------------------------------------------------|

Continued

D-0000000000000000----------------------------------------|
A-9999999999999999----------------------------------------|
F-9999999999999999----------------------------------------|
C---------------------------------------------------------|
G---------------------------------------------------------|
D---------------------------------------------------------|


Chorus (Play octave chords if you'd like, otherwise you can just play the single notes)

D--------------------------------------------------------|
A--------------------------------------------------------|
F--------------------------------------------------------|
C--------------------------7-7-777-9-9-999---------------|
G--7--7--9-11-9-11-6--7-9--7-7-777-9-9-999---------------|
D--------------------------5-5-555-7-7-777---------------|


Chorus Part 2

D----------------------------------------------------------|
A----------------------------------------------------------|
F--------------------------------6-------------------------|
C------------------------------6--6-----4------7-----------|
G--7--7--9-11-9-11-6--7-9--4-4---------4-4----7-7---5-5-5--|
D------------------------------------2------5--------------|


Chorus Part 3

D----------------------------------------------------------|
A----------------------------------------------------------|
F----------------------------------------------------------|
C----------------------------7------10---------------------|
G--7--7--9-11-9-11-6--7-9---7-7---10--10-------------------|
D-------------------------5------8------8#-----------------|


Now instead of going to the intro again, we move to the bridge

Bridge Chords (Repeat 3 times)

D--------------------------------------------------------|
A--------------------------------------------------------|
F--4444---4444----6664---6664----------------------------|
C--------------------------------------------------------|
G--2222---2222----4442---4442----------------------------|
D--------------------------------------------------------|


"You've Got the Scars" is actually a guitar played through a talkbox. Here are the notes:

Play in-between vocals every other time through.

D---------------------------------------------------------|
A---------------------------------------------------------|
F---------------------------------------------------------|
C---------------------------------------------------------|
G---------------------------------------------------------|
D--5<4<2>4------------------------------------------------|


Walk Up into pre-chorus

D--------------------------------------------------------|
A--------------------------------------------------------|
F--------------------------------------------------------|
C--------------------------------------------------------|
G--------------------------------------------------------|
D--555-6-777-8-999-10------------------------------------|


Back into the pre.

Pre-Chorus (Rhythm part)

D--------------------------------------------------------|
A--------------------------------------------------------|
F--------------------------------------------------------|
C--6-----7-----4-----6-----0---2222222222222222----------|
G--7-----4-----3-----7-----1---0000000000000000----------|
D--------------------------------------------------------|


Pre-Chorus (Lead part)

D--------------------------------------------------------|
A--------------------------------------------------------|
F--999999999999999999999999999999999999999999999999------|
C--------------------------------------------------------|
G--------------------------------------------------------|
D--------------------------------------------------------|

Continued

D-0000000000000000----------------------------------------|
A-9999999999999999----------------------------------------|
F-9999999999999999----------------------------------------|
C---------------------------------------------------------|
G---------------------------------------------------------|
D---------------------------------------------------------|


Right into the chorus again

Chorus (Play octave chords if you'd like, otherwise you can just play the single notes)

D--------------------------------------------------------|
A--------------------------------------------------------|
F--------------------------------------------------------|
C--------------------------7-7-777-9-9-999---------------|
G--7--7--9-11-9-11-6--7-9--7-7-777-9-9-999---------------|
D--------------------------5-5-555-7-7-777---------------|


Chorus Part 2

D----------------------------------------------------------|
A----------------------------------------------------------|
F--------------------------------6-------------------------|
C------------------------------6--6-----4------7-----------|
G--7--7--9-11-9-11-6--7-9--4-4---------4-4----7-7---5-5-5--|
D------------------------------------2------5--------------|


Chorus Part 3

D----------------------------------------------------------|
A----------------------------------------------------------|
F----------------------------------------------------------|
C----------------------------7------10---------------------|
G--7--7--9-11-9-11-6--7-9---7-7---10--10-------------------|
D-------------------------5------8------8#-----------------|


End Part (This is off the top of my head, may be inaccurate)

D----------------------------------------------------------|
A----------------------------------------------------------|
F----------------------------------------------------------|
C--44444444-55555555-22222222-66666666-2-------------------|
G--22222222-33333333-00000000-44444444-2-------------------|
D--------------------------------------0-------------------|

Any questions? Email me at benspremulli@gmail.com
Tap to rate this tab
# A B C D E F G H I J K L M N O P Q R S T U V W X Y Z