Song name
# A B C D E F G H I J K L M N O P Q R S T U V W X Y Z

Kicking Daisies - Keeping Secrets tab

Hey everyone, here's another tab for my band's new single "keeping secrets"


enjoy! :D

.=palm mute
x=mute
~=ring

e---x---x---x---x---x---x---x---x---x---x---x---x---x---x---x---x---|
B---x---x---x---x---x---x---x---x---x---x---x---x---x---x---x---x---|
G---9---9---9---9---9---9---9---9---9---9---9---9---9---9---9---9---|
D---10--10--10--10--10--10--10--10--10--10--10--10--10--10--10--10--|
A---8---8---8---8---8---8---8---8---8---8---8---8---8---8---8---8---|
E---x---x---x---x---x---x---x---x---x---x---x---x---x---x---x---x---|


e---x---x---x---x---x---x---x---x---x---x---x---x---x---x---x---x---|
B---x---x---x---x---x---x---x---x---x---x---x---x---x---x---x---x---|
G---9---9---9---9---9---9---9---9---9---9---9---9---9---9---9---9---|
D---10--10--10--10--10--10--10--10--10--10--10--10--10--10--10--10--|
A---x---x---x---x---x---x---x---x---x---x---x---x---x---x---x---x---|
E---10--10--10--10--10--10--10--10--10--10--10--10--10--10--10--10--|


e---x---x---x---x---x---x---x---x---x---x---x---x---x---x---x---x---|
B---x---x---x---x---x---x---x---x---x---x---x---x---x---x---x---x---|
G---9---9---9---9---9---9---9---9---9---9---9---9---9---9---9---9---|
D---10--10--10--10--10--10--10--10--10--10--10--10--10--10--10--10--|
A---x---x---x---x---x---x---x---x---x---x---x---x---x---x---x---x---|
E---8---8---8---8---8---8---8---8---8---8---8---8---8---8---8---8---|


e---x---x---x---x---x---x---x---x---x-----------------------|
B---8---8---8---8---8---8---8---8---5-----------------------|
G---9---9---9---9---9---9---9---9---5-----------------------|
D---10--10--10--10--10--10--10--10--5-----------------------|
A---0---0---0---0---0---0---0---0---0-----------------------|
E---x---x---x---x---x---x---x---x---x-----------------------|


e-----------------------------------------------------------|
B-x--x---x--------------------------------------------------|
G-x--x---x----9-------9-------9-------9-------9-------------|
D-10-10--10---10------10------10------10------10------------|
A-7--7---8----8---8-------8-------8-------8-----------------|
E-----------------------------------------------------------|
            Something has gotta be  wrong with you...


e-----------------------------------------------------------|
B-----------------------------------------------------------|
G------9-------9-------9-------9----------------------------|
D-----10------10------10------10----------------------------|
A--8-------8-------8-------8--------------------------------|
E-----------------------------------------------------------|
  I can't seeeeeem      to read your mind

e------------------------------------------------------------|
B------------------------------------------------------------|
G------9-------9-------9-------9-----------------------------|
D-----10------10------10------10-----------------------------|
A------------------------------------------------------------|
E--8-------8-------8-------8---------------------------------|
     is what they're saying really true?

e------------------------------------------------------------|
B------------------------------------------------------------|
G------9-------9-------9-------------------------------------|
D-----10------10------10---10-10---10------------------------|
A--------------------------7--7----8-------------------------|
E--8-------8-------8-----------------------------------------|
       or is it just  a    nother lie?


F
Built up this wall just to tear it down, was it worth your time?

C                                                                   
Thanks to you things are different now,

                          Gsus4       G
you have turned yourself arouuuuuuuuuuuuuund


(Pre-Chorus)


F, Am, G
        how does it feel to be

F,   Am, G        C9 
you?       You've got your eyes closed


F, Am, G
         cause all you do is see

F,  Am, G    C9
you         but you'll never know


(chorus... same as intro)


e---x---x---x---x---x---x---x---x---x---x---x---x---x---x---x---x---|
B---x---x---x---x---x---x---x---x---x---x---x---x---x---x---x---x---|
G---9---9---9---9---9---9---9---9---9---9---9---9---9---9---9---9---|
D---10--10--10--10--10--10--10--10--10--10--10--10--10--10--10--10--|
A---8---8---8---8---8---8---8---8---8---8---8---8---8---8---8---8---|
E---x---x---x---x---x---x---x---x---x---x---x---x---x---x---x---x---|
           I    caught    my    self  from  falling   for    you

e---x---x---x---x---x---x---x---x---x---x---x---x---x---x---x---x---|
B---x---x---x---x---x---x---x---x---x---x---x---x---x---x---x---x---|
G---9---9---9---9---9---9---9---9---9---9---9---9---9---9---9---9---|
D---10--10--10--10--10--10--10--10--10--10--10--10--10--10--10--10--|
A---x---x---x---x---x---x---x---x---x---x---x---x---x---x---x---x---|
E---10--10--10--10--10--10--10--10--10--10--10--10--10--10--10--10--|
           I    stopped    my    self    from    being    used

e---x---x---x---x---x---x---x---x---x---x---x---x---x---x---x---x---|
B---x---x---x---x---x---x---x---x---x---x---x---x---x---x---x---x---|
G---9---9---9---9---9---9---9---9---9---9---9---9---9---9---9---9---|
D---10--10--10--10--10--10--10--10--10--10--10--10--10--10--10--10--|
A---x---x---x---x---x---x---x---x---x---x---x---x---x---x---x---x---|
E---8---8---8---8---8---8---8---8---8---8---8---8---8---8---8---8---|
 
F                                     Dm
I'm, not the one you thought you knew, this time the joke is all on you

C                           Am
I'll keep my secrets close, I'll keep my secrets from you


F, G, Am, C9


(Verse 2)

F
all's fair in love and war, i'll fight to even up the score

C
The rules are fair it's do or die, but knowing you, you'll never try

F
You'll lie to me I'll lie to you, that's just what we do

C
I'll play this game to prove you wrong, so I can prove you're not the one

Hey!!


(Pre-Chorus)


F, Am, G
        how does it feel to be

F,   Am, G        C9 
you?       You've got your eyes closed


F, Am, G
         cause all you do is see

F,  Am, G    C9
you         but you'll never know hooooo


(Chorus)

F                                     Dm
I caught myself from falling for you, I stopped myself from being used

C                           Am
I'll keep my secrets close, I'll keep my secrets from you

F                                     Dm
I'm, not the one you thought you knew, this time the joke is all on you

C                           Am
I'll keep my secrets close, I'll keep my secrets from you


(Solo)


F, G, Am, C9

F, G, Am

F, G, Am, C9

F, G, Am


(Bridge)

e----------------------------------------------------------------------|
B----------------------------------------------------------------------|
G----------------------------------------------------------------------|
D---------------------------------10-----------------------------------|
A-----0-------2-------3-------7------7---------------------------------|
E---1---0---3---0---5---0---8---8------8-------------------------------|
    ....................................
                            oh you'll never know

e-------------------------------------0~~------------------------------|
B----------------------------------------0~~---------------------------|
G----------------------------------5~~------5~~------------------------|
D-------------------------------7~~------------7~~---------------------|
A-------0-------2-------3----7~~---------------------------------------|
E--0--1---1---3---3---5---5--------------------------------------------|
   .........................
                        yeah you'll never know

e----------------------------------------------------------------------|
B----------------------------------------------------------------------|
G----------------------------------------------------------------------|
D---------------------------------10-----------------------------------|
A-----0-------2-------3-------7------7---------------------------------|
E---1---0---3---0---5---0---8---8------8-------------------------------|
    ....................................
                            oh you'll never know

e-------------------------------------0~~------------------------------|
B----------------------------------------0~~---------------------------|
G----------------------------------5~~------5~~------------------------|
D-------------------------------7~~------------7~~---------------------|
A-------0-------2-------3----7~~---------------------------------------|
E--0--1---1---3---3---5---5--------------------------------------------|
   .........................
                               you'll never know

e----------------------------------------------------------------------|
B----------------------------------------------------------------------|
G----------------------------------------------------------------------|
D---3---3---3---5---5---5---7---7---7---10--10--10--10--10--10--10-----|
A---3---3---3---5---5---5---7---7---7---10--10--10--10--10--10--10-----|
E---1---1---1---3---3---3---5---5---5---8---8---8---8---8---8---8------|
    ..............................................................
                                       oh you'll never know

e---------------------------------------------------0------------------|
B-------------------------------------------------------0--------------|
G-----------------------------------------------5-----------5----------|
D---3---3---3---5---5---5---7---7---7-------7-------------------7------|
A---3---3---3---5---5---5---7---7---7---7------------------------------|
E---1---1---1---3---3---3---5---5---5----------------------------------|
    .................................
                               yeah you'll never know

e----------------------------------------------------------------------|
B----------------------------------------------------------------------|
G----------------------------------------------------------------------|
D---3---3---3---5---5---5---7---7---7---10--10--10--10--10--10--10-----|
A---3---3---3---5---5---5---7---7---7---10--10--10--10--10--10--10-----|
E---1---1---1---3---3---3---5---5---5---8---8---8---8---8---8---8------|
    ..............................................................
                                        you'll never know

e----------------------------------------------------------------------|
B----------------------------------------------------------------------|
G----------------------------------------------------------------------|
D---3---3---3---5---5---5---7---7--------------------------------------|
A---3---3---3---5---5---5---7---7--------------------------------------|
E---1---1---1---3---3---3---5---5--------------------------------------|
                                    OH YOU'LL NEVER KNOWWWWWWWW

(chorus)

F                                     Dm
I caught myself from falling for you, I stopped myself from being used

C                           Am
I'll keep my secrets close, I'll keep my secrets from you

F                                     Dm
I'm, not the one you thought you knew, this time the joke is all on you

C                           Am
I'll keep my secrets close, I'll keep my secrets from you


(outro)


F, G, Am, C9
          oh you'll never know

F, G, Am
      oh you'll never know

F, G, Am, C9
          oh you'll never know

F,    G,      Am
hooo, ooh woahoooooo



Questions or comments?
www.facebook.com/kickingdaisiesmusic

check us out on

youtube,twitter,myspace,facebook,myyearbook,and kickingdaisies.com

take care!
Tap to rate this tab
 
# A B C D E F G H I J K L M N O P Q R S T U V W X Y Z