Song name
# A B C D E F G H I J K L M N O P Q R S T U V W X Y Z

Kid Abelha - Pintura Ntima chords

Highlighted       Show chord diagrams
(intro) E  C#m A  B
        A  B

E|-------------------------|
B|-----6-------------------|
G|-5-6---5--5---5----------|  (3x)
D|--------8-------5h6p5----|
A|-----------------------8-|
E|-------------------------|


E|-------------------------|
B|-------------------------|
G|-------------------------|
D|-6-5---6-5---6-6-6-5-----|
A|-----8-----8---------8---|
E|-------------------------|


E|-------------------------|
B|-----6-------------------|
G|-5-7---7---5-------------|  (3x)
D|---------8---6-5---------|
A|-----------------8-------|
E|-------------------------|


E|-------------------------|
B|-----6-------------------|
G|-5-7---7---5-------------|
D|---------8---------------|
A|-------------------------|
E|-------------------------|


E|-12----13-12-------10----|
B|----13-------12-10-------|
G|----------------------12-|  (3x)
D|-------------------------|
A|-------------------------|
E|-------------------------|


E|-------------10-12-------|
B|-------10-13-------------|
G|-10-12-------------12----|
D|-------------------------|
A|-------------------------|
E|-------------------------|


A       B           A      B
Vem amor que a hora é essa
Vê se entende a minha pressa
Não me diz que eu tô errado
Eu tô seco, eu tô molhado
Deixa as contas que no fim das contas
O que interessa prá nós é

(refrão)
E   C#m  A      B    E    C#m  
A   B   E  C#m     A     B    
E   C#m  A  B    (A  B)
  Fazer amor de madrugada,               amor com jeito de virada

Larga logo desse espelho
Não reparou que eu tô até vermelho
Tá ficando tarde no meu edredon
Logo o sono bate

(refrão)
Tap to rate this tab
# A B C D E F G H I J K L M N O P Q R S T U V W X Y Z