Song name
# A B C D E F G H I J K L M N O P Q R S T U V W X Y Z

Kid Abelha - Fixao chords

Highlighted       Show chord diagrams
(intro/refrão)          ...alone

    Bm       G     A     A9
E |-----------------------0-------|
B |-------------------------0-----|
G |------0-----------2--------2---|
D |---4--------0---2---2--------2-|
A |-2--------2----0---------------|
E |--------3----------------------|


(intro)                   fixação.. (solo)

E |-2-------------------|-5-7-5----|------7-5---7-----7-9-10-9-7----7----------------------------|
B |---3--5-5-5-3-5-3----|-------7--|-7-7------7-----7------------10---8-7-----7----10-8-7--------|
G |------------------4--|----------|--------------------------------------7-9-------------7-9-7-9|
D |---------------------|----------|--------------------------------------------9----------------|
A ---------------------|----------|--------------------------------------------------------------|
E |---------------------|----------|-------------------------------------------------------------|



E |-14-14-14-14-12------------------------------------------------------------------------------|
B |--------------------------------------------------------------------------------7-7-7--------|
G |------------------9-7-6-------------------------6---9-9---7-7---7-7---7-7-7-7---------9-7----|
D |------------------------9-7-----------------7-9-------------------------------------------9--|
A |----------------------------10-9-7--------7--------------------------------------------------|
E |-----------------------------------10-9-7----------------------------------------------------|


Bm   G     A      Bm G       A
Seu rosto na tevê parece um milagre
Bm   G     A      Bm    G    A
Uma perfeição nos mínimos detalhes
Bm  G    A    Bm  G        A
Eu mudo o canal, eu viro a página
Bm     G      A           Bm   G     A
Mas você me persegue por todos os lugares
   F#m                 G
Eu vejo seu poster na folha central
Em                 A
Beijo sua boca te falo bobagens

Bm    G        A
Fixação, seus olhos no retrato
Bm    G   A
Fixação, minha assombração
Bm    G      A
Fixação, fantasmas no meu quarto
Bm    G      A
Fixação, I want to be alone
Bm  G     A           Bm     G      A
Preciso de uma chance de tocar em você
Bm   G    A           Bm        G    A
Captar a vibração que sinto em sua imagem
Bm    G       A           Bm  G       A
Fecho os olhos pra te ver você nem percebe
Bm      G            A     Bm      G        A
Penso em provas de amor ensaio um show passional
F#m                    G
Eu vejo seu poster na folha central
Em                 A
Beijo sua boca te falo bobagens

Bm    G         A
Fixação, seus olhos no retrato
Bm    G   A
Fixação, minha assombração
Bm    G      A
Fixação, fantasmas no meu quarto
Bm    G     A
Fixação, I want to be alone

kidabelha.com.br
Tap to rate this tab
# A B C D E F G H I J K L M N O P Q R S T U V W X Y Z