Song name
# A B C D E F G H I J K L M N O P Q R S T U V W X Y Z

Kid Alex - Alex The Kid tab

Tune playing in background of old Supervision
(imitation Gameboy) game Alex the Kid. This
melody never got out of my head, guess it's
hardcoded in my brain somehow.

It might be part of a classical song or something.
If you happen to know, please send an email to
eelexx@hotmail.com.

I've not been playing guitar for very long, couldn't
say it's in the right key, but it's the right melody.

e| ---------------------------------------|
B|-0----------------------------0-----1-0-|
G|---0---0------------------0-2---0-2-----|
D|-----0---------0-2--2-3-2---------------|
A|---------0-2-3--------------------------|
E|----------------------------------------|

e|---0------------------------------------------|
B|-0---3-1-0-1-------1--------------------------|
G|-------------0---0---0---0--------------------|
D|---------------2-------2--------0-2-3---------|
A|---------------------------3--3-------3-0-3---|
E|--------------------------------------------1-|
Tap to rate this tab
# A B C D E F G H I J K L M N O P Q R S T U V W X Y Z