Guitaretab - guitar tabs
Song name
# A B C D E F G H I J K L M N O P Q R S T U V W X Y Z

Kid Courageous - Use Me tab

-------------------------------------------------------------------------------
			                  USE ME - Hinder
-------------------------------------------------------------------------------
Tabbed by:im2dumb4u8
Email:billwjo@gmail.com

Tuning:Drop D

Lots of Distortion!

    Intro
e|--------------------------------|
B|--------------------------------|
G|-7-(x14)-5-(x3)-8-(x14)-5-(x3)--|
D|-5-------5------5-------5-------| a few times
A|--------------------------------|
E|--------------------------------|
[ Tab from: http://www.guitaretab.com/k/kid-courageous/140079.html ]
    Intro Lead 1:
e|---------------------------|---------------------------|  |---------------|
B|---------------------------|---------------------------|  |---------------|
G|12--12-10---------------12-|10-12b-10---------------12-|  |10-------------|
D|----------12-11-10-8-------|-----------12-11-10-8------|x2|---12-11-10-8--|
A|---------------------12----|----------------------10---|  |-------------10|
E|---------------------------|---------------------------|  |---------------|
    Intro Lead 2:
E|----7----8----10----8----10--11----10----8-----10---8-7--|
B|-8-8--8-8--8-8---8-8--8-8---8---8-8---8-8---8-8----8-----|
G|---------------------------------------------------------|
D|---------------------------------------------------------|
A|---------------------------------------------------------|
D|---------------------------------------------------------|
    Verse:
e|-----------------------------------------------|
B|-----------------------------------------------|
G|-----------------------------------------------|
D|-3/5-5----3/5-5----3/5-5----3/5(x8)-3-3-3-7----|
A|-3/5-5----1/3-3----3/5-5----1/3-----3-3-3-5----|
E|-3/5-5-------------3/5-5------------3-3-3------|

E|----------------------------|      |--------|
B|----------------------------|      |--------|
G|----------------------------|      |--------|
D|-3/5-5-------3/5-5-5--------| (x2) |-7------|
A|-3/5-5-------1/3-3-3(x16)---|      |-5-(x16)|
E|-3/5-5-(x16)-|p.m...|-------|      |--------|
     |p.m....|    

    Chorus
e|-----------------------|     |---------------|
B|-----------------------|     |---------------|
G|-----------------------|     |---------------|
D|-5-------3------5(x4)--|(x3) |-8-------5-----|
A|-5(x8)---3(x4)--3------|     |-6(x8)---3(x8)-|
E|-5-------3-------------|     |---------------|

    Intro Lead 2
    Verse
    Chorus (x2)
    Solo (sorry, don't have it)

e|--------------|
B|--------------|
G|-------5------|
D|-5--3--5--3---| (x2)
A|-5--3--3--3---|
E|-5--3-----3---|

    Chorus + Outro(lead)  Note: last chorus a bit different arrangement
    Outro
    
Outro:
e|-7-8-10-8-15-13-12-13---|     |-10-8-7-5-8-7-5-----|
B|--8-8--8-8--8--8--8--8--|     |---8-8-8-8-8-8------|
G|------------------------|     |--------------5-----|
D|------------------------|(x2) |--------------5-5-5-|
A|------------------------|     |--------------3-5-5-|
E|------------------------|     |----------------5-5-|

or if you can't reach
e|-----------------15--13--12--13-|
B|-12--13--15--13-----------------|
G|---12--12--12--12--12--12--12---|
D|--------------------------------|(x2)
A|--------------------------------|
E|--------------------------------|

| /  slide up
| \  slide down
| h  hammer-on
| p  pull-off
| ~  vibrato
| +  harmonic
| x  Mute note
===============================================================================
Related for Use Me tab
Advertisement will be closed in 10 seconds