Song name
# A B C D E F G H I J K L M N O P Q R S T U V W X Y Z

Kid Cudi - Dat New New tab

Kid Cudi
"Dat New "New""

Slightly distorted sound

e|---------------------------------------------|
B|---------------------------------------------|
G|-----------------------0-4-0---0-4-0---------|
D|-------0-4-0---0-4-0-2-------2---------------|
A|-----2-------2-------------------------------|
E|---------------------------------------------|

e|---------------------------------------------|
B|---------------------------------------------|
G|-------0-5-0---0-5-0-------------------------|
D|-----3-------3---------0-5-0---0-5-0---------|
A|---------------------3-------3---------------|
E|---------------------------------------------|
Tap to rate this tab
# A B C D E F G H I J K L M N O P Q R S T U V W X Y Z