Song name
# A B C D E F G H I J K L M N O P Q R S T U V W X Y Z

Kid Cudi - Alive tab

Alive by Kid Cudi (Produced by RATATAT) off of Man on the Moon: End of Day

Bass line
e-------------------------------|
B-------------------------------|
G-------------------------------|
D-------------------------------|
A-------------------------------|
E---2---2-4-5-0-----------------|



e--9---10---9----9----12-----10---9----7---9h---7-----|
B-10---12---10---10---14-----12---10---10--10--10--9--|
G--------------------------------------------------9--|
D-----------------------------------------------------|
A-----------------------------------------------------|
E-----------------------------------------------------|
And repeat
Tap to rate this tab
# A B C D E F G H I J K L M N O P Q R S T U V W X Y Z