Song name
# A B C D E F G H I J K L M N O P Q R S T U V W X Y Z

Kid Cudi - Pursuit Of Happiness tab

-------------------------------------------------------------------------------
			     PURSUIT OF HAPPINESS - Kid Cudi
-------------------------------------------------------------------------------
Tabbed by: Unavailable User


Tuning: Standard


Part 1
e|--------------------------------------------------|
B|-13-12-10-13-12-----------------------------------|
G|------------------9~~~--9/12-12-------------------|
D|--------------------------------------------------| 
A|--------------------------------------------------|
E|--------------------------------------------------|

Repeat Part 1

Part 2
e|--------------------------------------------------|
B|--------------------------------------------------|
G|----9----10----14-12-10-9-------------------------|
D|-10---12----14---------------10--12--14-12--10----|
A|-----------------------------------------------12-|
E|--------------------------------------------------|

Repeat Part 1 (x2)


e|--------------------------------------------------|
B|-----------------------------------------------13~|
G|----9----10----14-12-10-9-------------------------|
D|-10---12----14---------------10--12--14-12--10----|
A|--------------------------------------------------|
E|--------------------------------------------------|


| /  slide up
| \  slide down
| h  hammer-on
| p  pull-off
| ~  vibrato
| +  harmonic
| x  Mute note
===============================================================================
Tap to rate this tab
 
# A B C D E F G H I J K L M N O P Q R S T U V W X Y Z