Song name
# A B C D E F G H I J K L M N O P Q R S T U V W X Y Z

Kid Cudi - The Pursuit Of Happiness tab

I only got power chords for the chorus

---------------------------------|
---------------------------------|
---------------------------------|
--14-----/11--/13--11--9-9--9\11-|
--14-X3--/11--/13--11--9-9--9\11-|
--12-----/9---/11--9---7-7--7\9--|

----------------------------------|
----------------------------------|
--14-----/11--/13--11----9---4----|
--14-X3--/11--/13--11-X4-9---4----|
--12-----/9---/11--9-----7---2----|

----------------------------------|
----------------------------------|
--7---------------9--6-----4------|
--7-X4 then slide-9--6-X3--4------|
--5---------------7--4-----2------|

----------------------------------|
----------------------------------|
--7---------------9--6-----4------|
--7-X4 then slide-9--6-----4------|
--5---------------7--4-----2------|
Tap to rate this tab
 
# A B C D E F G H I J K L M N O P Q R S T U V W X Y Z