Song name
# A B C D E F G H I J K L M N O P Q R S T U V W X Y Z

Kid Cudi - The Prayer tab

-------------------------------------------------------------------------------
			     The Prayer - Kid Cudi
-------------------------------------------------------------------------------
Tabbed by: Roman Ramirez
Email: Roman_Ramirez@comcast.net

This is the closest tab i could come up with that matches up with the song. Play
this throughout the hole thing.

e|-------9---------4-----------------1--------------------------------------------------|
B|----11---11----6---6------4------2---2------------------------------------------------|
G|-11----------6----------5---5--3------------------------------------------------------|
D|----------------------6---------------------------------------------------------------|
A|--------------------------------------------------------------------------------------|
E|--------------------------------------------------------------------------------------|
Tap to rate this tab
# A B C D E F G H I J K L M N O P Q R S T U V W X Y Z