Song name
# A B C D E F G H I J K L M N O P Q R S T U V W X Y Z

Kid Cudi - Dat New New tab

e|--------------------------------|
b|---------------------3-------3--|
g|-----3-------3---1-4---4-1-4---4|
d|-0-3---3-0-3---3----------------|
a|--------------------------------|
e|--------------------------------|




e|--------------------------------|
b|-----1-------1------------------|
g|---3---3---3---3---1-4-1---1-4-3|
d|-3-------3-------2-------2------|
a|--------------------------------|
e|--------------------------------|
Tap to rate this tab
# A B C D E F G H I J K L M N O P Q R S T U V W X Y Z