Song name
# A B C D E F G H I J K L M N O P Q R S T U V W X Y Z

Kid Cudi - The Prayer tab

E---6----3----1---|-3---------------|-----------------|-----------------|
B--8-8--4-4--3-3--|--4-4------------|-----------------|-----------------|
G-8----5----3-----|---5-------------|-----------------|-----------------|
D-----------------|-----------------|-----------------|-----------------|
A-----------------|-----------------|-----------------|-----------------|
E-----------------|-----------------|-----------------|-----------------|

Then start over 

or....

E---6----3----1-1-|-----------------|-----------------|-----------------|
B--8-8--4-4--3-3-3|-----------------|-----------------|-----------------|
G-8----5----3-----3-----------------|-----------------|-----------------|
D-----------------|-----------------|-----------------|-----------------|
A-----------------|-----------------|-----------------|-----------------|
E-----------------|-----------------|-----------------|-----------------|
Tap to rate this tab
# A B C D E F G H I J K L M N O P Q R S T U V W X Y Z