Song name
# A B C D E F G H I J K L M N O P Q R S T U V W X Y Z

Kid Cudi - Dat New New tab

-------------------------------------------------------------------------------
			     Dat New New  - Kid Cudi
-------------------------------------------------------------------------------
Tabbed by:Zegley
Email:zegley@yahoo.com

Tuning: Standard (EADGBe)

e|-----------------------------------------------------------------------------------|
B|-----------------------------------------------------------------------------------|
G|-----------------------------------------------------------------6-----------------|
D|-----------------6-----------------------6-----------4-----7-----------7-----------|
A|-----4-----7-----------7-----4-----7-----------7-----------------------------------|
E|-----------------------------------------------------------------------------------|

e|------------------------------------------------------------------------------------|
B|------------------------------------------------------------------------------------|
G|-----------------6-----------------------4-----------------------4------------------|
D|-----4-----7-----------7-----------6-----------6-----------6-----------6------------|
A|-----------------------------7-----------------------7------------------------------|
E|------------------------------------------------------------------------------------|

e|-----------------------------------------------------------------------------------|
B|-----------------------------------------------------------------------------------|
G|-----------------------------------------------------------------------------------|
D|-----------4-----7-----4-----------4-----7-----6-----------------------------------|
A|-----6-----------------------6-----------------------------------------------------|
E|-----------------------------------------------------------------------------------|

Repeat for the whole song
Tap to rate this tab
# A B C D E F G H I J K L M N O P Q R S T U V W X Y Z