Song name
# A B C D E F G H I J K L M N O P Q R S T U V W X Y Z

Kid Cudi - Cudderisback tab

Artist:Kid Cudi (Remixing the song Ottoman By Vampire Weekend)
Song: "Cudderisback"
Album: None


Standard:EADGBe
Difficulty:VERY EASY!

In the Kid Cudi Remix of "Ottoman" by Vampire Weekend

This next riff is repeated about 30 Times throughout the whole song


Main Riff
E|------12------12------10------10-----7-----7-----5-----5--|
B|--10------10------12------12------8-----8-----7-----7-----|
G|----------------------------------------------------------|
D|----------------------------------------------------------| ALL PALM MUTED
A|----------------------------------------------------------|
E|----------------------------------------------------------|

     Then the violin, this may not be 100% correct!
   if youve heard the song youll catch the tempo
E|--------------------------------------------------|
B|--------------------------------------------------|
G|--------------------------------------------------|
D|-----------------------------------------0-----0--|
A|-----7-----7--5-----5--------2-----2--------------|  ALL PALM MUTED,depends
E|--5-----5--------3-----3--3-----3-----2-----2-----| on your playing style


After 1st High E Riff is played 10 times, play this part (may not be 100% correct!)

E|------12--17--12------10--14--10------14--10---------7--10--7---|
B|--10--------------12--------------12----------12--8-------------|
G|----------------------------------------------------------------|Not palm
D|----------------------------------------------------------------|muted, but
A|----------------------------------------------------------------|depends on
E|----------------------------------------------------------------|playing style
     PLay this twice then go back to main riff

yeah that looks about right!! If you have any edits on the two riffs i said may not be 
email me at Lilrocker344@aim.com

email me! on any mess ups or edits!!!

thanks, lunatic23
Tap to rate this tab
# A B C D E F G H I J K L M N O P Q R S T U V W X Y Z