Kid Cudi - Pursuit Of Happiness tab

I heard this song and its solo and wanted to learn it,
but couldnt find an accurate tab online.
Soo i learnt it by ear and tabbed it for others so that they would have
less trouble learning this song unlike me haha :)

This is my first tab, its not that hard but i hope its alright, enjoy!

s = slide
~ = vibrato

Standard Tuning

e-------------------------------|
B-14-13-11-14-11----------------|
G-----------------9---s13-13----|  X2
D-------------------------------|
A-------------------------------|
E-------------------------------|

e--------------------------------------------------------|
B-----------------11-------------------------------------|
G-----10----11-10-----13-11-10---------------------------|
D--11----13-------------------------11s13--15-13--8s11---|
A--------------------------------13----------------------|
E--------------------------------------------------------|

e-------------------------------|
B-14-13-11-14-11----------------|
G-----------------9---s13-13----|  X2
D-------------------------------|
A-------------------------------|
E-------------------------------|

e--------------------------------------------------------|
B-----------------11---------------------------------~~--|
G-----10----11-10-----13-11-10--------------------13s15--|
D--11----13-------------------------11s13--15-13---------|
A--------------------------------13----------------------|
E--------------------------------------------------------|
Tap to rate this tab
 
# A B C D E F G H I J K L M N O P Q R S T U V W X Y Z