Song name
# A B C D E F G H I J K L M N O P Q R S T U V W X Y Z

Kid Cudi - Erase Me tab

Song: Erase Me (feat. Kanye West)
Artist: Kid Cudi
Tabbed by: The Kyle
Tuning: Standard

"She said I don't spend time
like I really should"
e--------------------------------------|
B--------------------------------------|
G--------------------------------------|
D----------6-6-6-6---------------------|
A--7-7-7-7-4-4-4-4-4-4-4-4-4-4-4-4-----|
E--5-5-5-5---------2-2-2-2-2-2-2-2-----|
   . . . . . . . . . . . . . . . .

"She said she don't know me,
anymore"
e--------------------------------------|
B--------------------------------------|
G--------------------------------------|
D----------6-6-6-6---------------------|
A--7-7-7-7-4-4-4-4-4-4-4-4-4-----------|
E--5-5-5-5---------2-2-2-2-2-----------|
   . . . . . . . . . . . . .

"I think she hates me deep down
I know she does"
e--------------------------------------|
B--------------------------------------|
G--------------------------------------|
D----------6-6-6-6---------------------|
A--7-7-7-7-4-4-4-4-4-4-4-4-4-4-4-4-----|
E--5-5-5-5---------2-2-2-2-2-2-2-2-----|
   . . . . . . . . . . . . . . . .

"She wants to erase me
hmmmmmm"
e--------------------------------------|
B--------------------------------------|
G--------------------------------------|
D----------6-6-6-6---------------------|
A--7-7-7-7-4-4-4-4-4-4-4-4-4-4-4-4-----|
E--5-5-5-5---------2-2-2-2-2-2-2-2-----|
   . . . . . . . . . . . . . . . .

"A couple days no talking,
I seen my baby"
e--------------------------------------|
B--------------------------------------|
G--------------------------------------|
D--7-7-7-7-6-6-6-6-4-4-4-4-4-4-4-4-----|
A--5-5-5-5-4-4-4-4-2-2-2-2-2-2-2-2-----|
E--------------------------------------|
   . . . . . . . . . . . . . . . .

"And this what she tells me
She said:"
e--------------------------------------|
B--------------------------------------|
G--------------------------------------|
D--7-7-7-7-6-6-6-6-9-9-9-9-9-9-9-9-----|
A--5-5-5-5-4-4-4-4-7-7-7-7-7-7-7-7-----|
E--------------------------------------|
   . . . . . . . . . . . . . . . .


"I keep on running, keep on running
and nothing works
I can't get away from you"
e---------------------------------------------------------------------|
B---------------------------------------------------------------------|
G--------------------------------------------------5-5-5-5-5-5-5-5----|
D--7-7-7-7-7-7-7-7-2-2-2-2-2-2-2-2-4-4-4-4-4-4-4-4-5-5-5-5-5-5-5-5----|
A--7-7-7-7-7-7-7-7-2-2-2-2-2-2-2-2-4-4-4-4-4-4-4-4-3-3-3-3-3-3-3-3----|
E--5-5-5-5-5-5-5-5-0-0-0-0-0-0-0-0-2-2-2-2-2-2-2-2--------------------|

"No, I keep on ducking, keep on ducking
and nothing helps
I can't stop missing you, yeah"
e---------------------------------------------------------------------|
B---------------------------------------------------------------------|
G--------------------------------------------------5-5-5-5-5-5-5-5----|
D--7-7-7-7-7-7-7-7-2-2-2-2-2-2-2-2-4-4-4-4-4-4-4-4-5-5-5-5-5-5-5-5----|
A--7-7-7-7-7-7-7-7-2-2-2-2-2-2-2-2-4-4-4-4-4-4-4-4-3-3-3-3-3-3-3-3----|
E--5-5-5-5-5-5-5-5-0-0-0-0-0-0-0-0-2-2-2-2-2-2-2-2--------------------|


"It's like I'm her new nightmare
She ain't escaping"
e--------------------------------------|
B--------------------------------------|
G--------------------------------------|
D----------6-6-6-6---------------------|
A--7-7-7-7-4-4-4-4-4-4-4-4-4-4-4-4-----|
E--5-5-5-5---------2-2-2-2-2-2-2-2-----|
   . . . . . . . . . . . . . . . .

"It makes me feel a bit complete,
yeah"
e--------------------------------------|
B--------------------------------------|
G--------------------------------------|
D----------6-6-6-6---------------------|
A--7-7-7-7-4-4-4-4-4-4-4-4-4-4-4-4-----|
E--5-5-5-5---------2-2-2-2-2-2-2-2-----|
   . . . . . . . . . . . . . . . .


"Knowing someone you love
Don't feel the same way about ya"
e--------------------------------------|
B--------------------------------------|
G--------------------------------------|
D----------6-6-6-6---------------------|
A--7-7-7-7-4-4-4-4-4-4-4-4-4-4-4-4-----|
E--5-5-5-5---------2-2-2-2-2-2-2-2-----|
   . . . . . . . . . . . . . . . .

"Memories, they soon delete
hmmmmmm"
e-----------------------|
B-----------------------|
G-----------------------|
D----------6-6-6-6------|
A--7-7-7-7-4-4-4-4------|
E--5-5-5-5--------------|
   . . . . . . . .


"A couple weeks no talking,
I seen my baby"
e--------------------------------------|
B--------------------------------------|
G--------------------------------------|
D--7-7-7-7-6-6-6-6-4-4-4-4-4-4-4-4-----|
A--5-5-5-5-4-4-4-4-2-2-2-2-2-2-2-2-----|
E--------------------------------------|
   . . . . . . . . . . . . . . . .

"I've missed you so damn much,
hey"
e--------------------------------------|
B--------------------------------------|
G--------------------------------------|
D--7-7-7-7-6-6-6-6-9-9-9-9-9-9-9-9-----|
A--5-5-5-5-4-4-4-4-7-7-7-7-7-7-7-7-----|
E--------------------------------------|
   . . . . . . . . . . . . . . . .


"I wish we could start over,
I told my baby"
e--------------------------------------|
B--------------------------------------|
G--------------------------------------|
D--7-7-7-7-6-6-6-6-4-4-4-4-4-4-4-4-----|
A--5-5-5-5-4-4-4-4-2-2-2-2-2-2-2-2-----|
E--------------------------------------|
   . . . . . . . . . . . . . . . .

"This what this b*tch tells me,
She said:"
e--------------------------------------|
B--------------------------------------|
G--------------------------------------|
D--7-7-7-7-6-6-6-6-9-9-9-9-9-9-9-9-----|
A--5-5-5-5-4-4-4-4-7-7-7-7-7-7-7-7-----|
E--------------------------------------|
   . . . . . . . . . . . . . . . .

"I keep on running, keep on running
and nothing works
I can't get away from you"
e---------------------------------------------------------------------|
B---------------------------------------------------------------------|
G--------------------------------------------------5-5-5-5-5-5-5-5----|
D--7-7-7-7-7-7-7-7-2-2-2-2-2-2-2-2-4-4-4-4-4-4-4-4-5-5-5-5-5-5-5-5----|
A--7-7-7-7-7-7-7-7-2-2-2-2-2-2-2-2-4-4-4-4-4-4-4-4-3-3-3-3-3-3-3-3----|
E--5-5-5-5-5-5-5-5-0-0-0-0-0-0-0-0-2-2-2-2-2-2-2-2--------------------|


"No, I keep on ducking, keep on ducking
and nothing helps
I can't stop missing you, yeah"
e---------------------------------------------------------------------|
B---------------------------------------------------------------------|
G--------------------------------------------------5-5-5-5-5-5-5-5----|
D--7-7-7-7-7-7-7-7-2-2-2-2-2-2-2-2-4-4-4-4-4-4-4-4-5-5-5-5-5-5-5-5----|
A--7-7-7-7-7-7-7-7-2-2-2-2-2-2-2-2-4-4-4-4-4-4-4-4-3-3-3-3-3-3-3-3----|
E--5-5-5-5-5-5-5-5-0-0-0-0-0-0-0-0-2-2-2-2-2-2-2-2--------------------|


"Cause I'm in the magazines, on the TV
No matter where you are, you might hear me"
e---------------------------------------------------|
B---------------------------------------------------|
G--------------------------------5-5-5-5-5-5-5-5----|
D--7-7-7--7--2-2-2--2--4-4-4--4--5-5-5-5-5-5-5-5----|
A--7-7-7--7--2-2-2--2--4-4-4--4--3-3-3-3-3-3-3-3----|
E--5-5-5--5--0-0-0--0--2-2-2--2---------------------|


"I'm in the magazines, on the TV
No matter where you go, you might see me"
e---------------------------------------------------|
B---------------------------------------------------|
G--------------------------------5-5-5-5-5-5-5-5----|
D--7-7-7--7--2-2-2--2--4-4-4--4--5-5-5-5-5-5-5-5----|
A--7-7-7--7--2-2-2--2--4-4-4--4--3-3-3-3-3-3-3-3----|
E--5-5-5--5--0-0-0--0--2-2-2--2---------------------|


"Uh, I'm Yeezy, she said, 'Hi I'm Aria'
No, you an angel, you wave hi to Aaliyah"
e--------------------------------------|
B--------------------------------------|
G--------------------------------------|
D----------6-6-6-6---------------------|
A--7-7-7-7-4-4-4-4-4-4-4-4-4-4-4-4-----|
E--5-5-5-5---------2-2-2-2-2-2-2-2-----|
   . . . . . . . . . . . . . . . .

"I got a show in Korea, they built a new arena
Why don't you come and watch a n*gga tear the whole scene up"
e--------------------------------------|
B--------------------------------------|
G--------------------------------------|
D----------6-6-6-6---------------------|
A--7-7-7-7-4-4-4-4-4-4-4-4-4-4-4-4-----|
E--5-5-5-5---------2-2-2-2-2-2-2-2-----|
   . . . . . . . . . . . . . . . .

"I know I seen ya before, but don't know where I seen ya
Oh I remember now, it's something that I dreamed up"
e--------------------------------------|
B--------------------------------------|
G--------------------------------------|
D----------6-6-6-6---------------------|
A--7-7-7-7-4-4-4-4-4-4-4-4-4-4-4-4-----|
E--5-5-5-5---------2-2-2-2-2-2-2-2-----|
   . . . . . . . . . . . . . . . .

"Don C says she cool, but don't let her f*ck her cream up
Monica Lewinski on the dress, she'll take ya to the cleaner"
e--------------------------------------|
B--------------------------------------|
G--------------------------------------|	2:26
D----------6-6-6-6-9-9-9-9-9-9-9-9-----|
A--7-7-7-7-4-4-4-4-7-7-7-7-7-7-7-7-----|
E--5-5-5-5-----------------------------|
   . . . . . . . . . . . . . . . .

"Sure enough a week later I'm an extra love
And everybody know she mine, so she extra plugged"
e--------------------------------------|
B--------------------------------------|
G--------------------------------------|
D--7-7-7-7-6-6-6-6-4-4-4-4-4-4-4-4-----|
A--5-5-5-5-4-4-4-4-2-2-2-2-2-2-2-2-----|
E--------------------------------------|
   . . . . . . . . . . . . . . . .

"Every bouncer, every club show her extra love
We just praying the new fame don't get the best of us"
e--------------------------------------|
B--------------------------------------|
G--------------------------------------|
D--7-7-7-7-6-6-6-6-9-9-9-9-9-9-9-9-----|
A--5-5-5-5-4-4-4-4-7-7-7-7-7-7-7-7-----|
E--------------------------------------|
   . . . . . . . . . . . . . . . .

"But all good things gotta come to an end
She let it go to her head, no, not a mind reader"
e--------------------------------------|
B--------------------------------------|
G--------------------------------------|
D--7-7-7-7-6-6-6-6-4-4-4-4-4-4-4-4-----|
A--5-5-5-5-4-4-4-4-2-2-2-2-2-2-2-2-----|
E--------------------------------------|
   . . . . . . . . . . . . . . . .


"The height of her shopping was the writer's blocking me
I couldn't get me shit out anyway, I hope you die Aria"
e--------------------------------------|
B--------------------------------------|
G--------------------------------------|
D--7-7-7-7-6-6-6-6-9-9-9-9-9-9-9-9-----|
A--5-5-5-5-4-4-4-4-7-7-7-7-7-7-7-7-----|
E--------------------------------------|
   . . . . . . . . . . . . . . . .


"I keep on running, keep on running
and nothing works
I can't get away from you"
e---------------------------------------------------------------------|
B---------------------------------------------------------------------|
G--------------------------------------------------5-5-5-5-5-5-5-5----|
D--7-7-7-7-7-7-7-7-2-2-2-2-2-2-2-2-4-4-4-4-4-4-4-4-5-5-5-5-5-5-5-5----|
A--7-7-7-7-7-7-7-7-2-2-2-2-2-2-2-2-4-4-4-4-4-4-4-4-3-3-3-3-3-3-3-3----|
E--5-5-5-5-5-5-5-5-0-0-0-0-0-0-0-0-2-2-2-2-2-2-2-2--------------------|


"No, I keep on ducking, keep on ducking
and nothing helps
I can't stop missing you"
e---------------------------------------------------------------------|
B---------------------------------------------------------------------|
G--------------------------------------------------5-5-5-5-5-5-5-5----|
D--7-7-7-7-7-7-7-7-2-2-2-2-2-2-2-2-4-4-4-4-4-4-4-4-5-5-5-5-5-5-5-5----|
A--7-7-7-7-7-7-7-7-2-2-2-2-2-2-2-2-4-4-4-4-4-4-4-4-3-3-3-3-3-3-3-3----|
E--5-5-5-5-5-5-5-5-0-0-0-0-0-0-0-0-2-2-2-2-2-2-2-2--------------------|
Tap to rate this tab
 
# A B C D E F G H I J K L M N O P Q R S T U V W X Y Z