Song name
# A B C D E F G H I J K L M N O P Q R S T U V W X Y Z

Kid Cudi - Erase Me tab

Song: Erase Me
Artist: Kid Cudi ft. Kanye West
Tabber: DevanD

I noticed it wasn't up, so i spent some time. I found it sounded best in Half-step down, 
I bet it can be played well in standard too.
It may not be 100% accurate, but it works. Enjoy!

Verse 1 - Kid Cudi
Part A
    She said I dont spend time like I really should...
eb|-----------------|-----------------|
Bb|-----------------|-----------------|
Gb|-3-3---3-7-7---7-|-----------------|
Db|-3-3---3-7-7---7-|-5-5---5---5---5-| x2
Ab|-1-1---1-5-5---5-|-5-5---5---5---5-|
Eb|-----------------|-3-3---3---3---3-|
    1 & 2 & 3 & 4 &   1 & 2 & 3 & 4 &

Part B
  A couple days no talking, I see my baby...
|-----------------|-----------------|-----------------|-----------------|
|-----------------|-----------------|-----------------|-----------------|
|-7-7-7-7-6-6-6-6-|-4-4-4-4-4-4-4-4-|-7-7-7-7-6-6-6-6-|-9-9-9-9-9-9-9-9-|
|-7-7-7-7-6-6-6-6-|-4-4-4-4-4-4-4-4-|-7-7-7-7-6-6-6-6-|-9-9-9-9-9-9-9-9-|
|-5-5-5-5-4-4-4-4-|-2-2-2-2-2-2-2-2-|-5-5-5-5-4-4-4-4-|-7-7-7-7-7-7-7-7-|
|-----------------|-----------------|-----------------|-----------------|
  1 & 2 & 3 & 4 &   1 & 2 & 3 & 4 &   1 & 2 & 3 & 4 &   1 & 2 & 3 & 4 &


Chorus
  I keep on running, keep on running...
|-----------------|-----------------|-----------------|-----------------|
|-----------------|-----------------|-----------------|-----------------|
|-3-3-3-3-3-3-3-3-|-----------------|-----------------|-8-8-8-8-8-8-8-8-|
|-3-3-3-3-3-3-3-3-|-3-3-3-3-3-3-3-3-|-5-5-5-5-5-5-5-5-|-8-8-8-8-8-8-8-8-| x2
|-1-1-1-1-1-1-1-1-|-3-3-3-3-3-3-3-3-|-5-5-5-5-5-5-5-5-|-6-6-6-6-6-6-6-6-|
|-----------------|-1-1-1-1-1-1-1-1-|-3-3-3-3-3-3-3-3-|-----------------|
  1 & 2 & 3 & 4 &   1 & 2 & 3 & 4 &   1 & 2 & 3 & 4 &   1 & 2 & 3 & 4 &


Verse 2 - Kid Cudi
Part A
  Its like Im her new nightmare...
|-----------------|-----------------|
|-----------------|-----------------|
|-3-3-3-3-7-7-7-7-|-----------------|
|-3-3-3-3-7-7-7-7-|-5-5-5-5-5-5-5-5-| x2
|-1-1-1-1-5-5-5-5-|-5-5-5-5-5-5-5-5-|
|-----------------|-3-3-3-3-3-3-3-3-|
  1 & 2 & 3 & 4 &   1 & 2 & 3 & 4 &

Part B
  A couple weeks no talking I seen my baby...
|-----------------|-----------------|-----------------|-----------------|
|-----------------|-----------------|-----------------|-----------------|
|-7-7-7-7-6-6-6-6-|-4-4-4-4-4-4-4-4-|-7-7-7-7-6-6-6-6-|-----------------|
|-7-7-7-7-6-6-6-6-|-4-4-4-4-4-4-4-4-|-7-7-7-7-6-6-6-6-|-4-4-4-4-4-4-4-4-|
|-5-5-5-5-4-4-4-4-|-2-2-2-2-2-2-2-2-|-5-5-5-5-4-4-4-4-|-4-4-4-4-4-4-4-4-|
|-----------------|-----------------|-----------------|-2-2-2-2-2-2-2-2-|
  1 & 2 & 3 & 4 &   1 & 2 & 3 & 4 &   1 & 2 & 3 & 4 &   1 & 2 & 3 & 4 &

|-----------------|-----------------|-----------------|-----------------|
|-----------------|-----------------|-----------------|-----------------|
|-7-7-7-7-6-6-6-6-|-4-4-4-4-4-4-4-4-|-7-7-7-7-6-6-6-6-|-9-9-9-9-9-9-9-9-|
|-7-7-7-7-6-6-6-6-|-4-4-4-4-4-4-4-4-|-7-7-7-7-6-6-6-6-|-9-9-9-9-9-9-9-9-|
|-5-5-5-5-4-4-4-4-|-2-2-2-2-2-2-2-2-|-5-5-5-5-4-4-4-4-|-7-7-7-7-7-7-7-7-|
|-----------------|-----------------|-----------------|-----------------|
  1 & 2 & 3 & 4 &   1 & 2 & 3 & 4 &   1 & 2 & 3 & 4 &   1 & 2 & 3 & 4 &


Chorus
  I keep on running, keep on running...
|-----------------|-----------------|-----------------|-----------------|
|-----------------|-----------------|-----------------|-----------------|
|-3-3-3-3-3-3-3-3-|-----------------|-----------------|-8-8-8-8-8-8-8-8-|
|-3-3-3-3-3-3-3-3-|-3-3-3-3-3-3-3-3-|-5-5-5-5-5-5-5-5-|-8-8-8-8-8-8-8-8-| x2
|-1-1-1-1-1-1-1-1-|-3-3-3-3-3-3-3-3-|-5-5-5-5-5-5-5-5-|-6-6-6-6-6-6-6-6-|
|-----------------|-1-1-1-1-1-1-1-1-|-3-3-3-3-3-3-3-3-|-----------------|
  1 & 2 & 3 & 4 &   1 & 2 & 3 & 4 &   1 & 2 & 3 & 4 &   1 & 2 & 3 & 4 &


Bridge
  Cause Im in the magazines, on the tv, no matter where you go...
|-----------------|-----------------|
|-----------------|-----------------|
|-3-33--3---------|---------8-88--8-|
|-3-33--3-3-33--3-|-5-55--5-8-88--8-| x2
|-1-11--1-3-33--3-|-5-55--5-6-66--6-|
|---------1-11--1-|-3-33--3---------|
  1 & 2 & 3 & 4 &   1 & 2 & 3 & 4 &


Verse 3 - Kanye West
Part A
  Uh, Im Yeezy, she said Hi Im Maria...
|-----------------|-----------------|-----------------|---------------------|
|-----------------|-----------------|-----------------|---------------------|
|-3-3-3-3-7-7-7-7-|-----------------|-3-3-3-3-7-7-7-7-|-12-12-12-12-12-12---|
|-3-3-3-3-7-7-7-7-|-5-5-5-5-5-5-5-5-|-3-3-3-3-7-7-7-7-|-12-12-12-12-12-12---|
|-1-1-1-1-5-5-5-5-|-5-5-5-5-5-5-5-5-|-1-1-1-1-5-5-5-5-|-10-10-10-10-10-10---|
|-----------------|-3-3-3-3-3-3-3-3-|-----------------|---------------------|
  1 & 2 & 3 & 4 &   1 & 2 & 3 & 4 &   1 & 2 & 3 & 4 &   1  &  2  &  3  & ...

Part B
  Sure enough 1 week later Im in extra love...
|-----------------|-----------------|-----------------|-----------------|
|-----------------|-----------------|-----------------|-----------------|
|-7-7-7-7-6-6-6-6-|-4-4-4-4-4-4-4-4-|-7-7-7-7-6-6-6-6-|-----------------|
|-7-7-7-7-6-6-6-6-|-4-4-4-4-4-4-4-4-|-7-7-7-7-6-6-6-6-|-4-4-4-4-4-4-4-4-|
|-5-5-5-5-4-4-4-4-|-2-2-2-2-2-2-2-2-|-5-5-5-5-4-4-4-4-|-4-4-4-4-4-4-4-4-|
|-----------------|-----------------|-----------------|-2-2-2-2-2-2-2-2-|
  1 & 2 & 3 & 4 &   1 & 2 & 3 & 4 &   1 & 2 & 3 & 4 &   1 & 2 & 3 & 4 &

|-----------------|-----------------|-----------------|---------------------|
|-----------------|-----------------|-----------------|---------------------|
|-7-7-7-7-6-6-6-6-|-4-4-4-4-4-4-4-4-|-7-7-7-7-6-6-6-6-|-12-12-12-12-12-10---|
|-7-7-7-7-6-6-6-6-|-4-4-4-4-4-4-4-4-|-7-7-7-7-6-6-6-6-|-12-12-12-12-12-12---|
|-5-5-5-5-4-4-4-4-|-2-2-2-2-2-2-2-2-|-5-5-5-5-4-4-4-4-|-10-10-10-10-10-10---|
|-----------------|-----------------|-----------------|---------------------|
  1 & 2 & 3 & 4 &   1 & 2 & 3 & 4 &   1 & 2 & 3 & 4 &   1  &  2  &  3  & ...


Chorus
  I keep on running, keep on running...
|-----------------|-----------------|-----------------|-----------------|
|-----------------|-----------------|-----------------|-----------------|
|-3-3-3-3-3-3-3-3-|-----------------|-----------------|-8-8-8-8-8-8-8-8-|
|-3-3-3-3-3-3-3-3-|-3-3-3-3-3-3-3-3-|-5-5-5-5-5-5-5-5-|-8-8-8-8-8-8-8-8-| x2
|-1-1-1-1-1-1-1-1-|-3-3-3-3-3-3-3-3-|-5-5-5-5-5-5-5-5-|-6-6-6-6-6-6-6-6-|
|-----------------|-1-1-1-1-1-1-1-1-|-3-3-3-3-3-3-3-3-|-----------------|
  1 & 2 & 3 & 4 &   1 & 2 & 3 & 4 &   1 & 2 & 3 & 4 &   1 & 2 & 3 & 4 &
Tap to rate this tab
 
# A B C D E F G H I J K L M N O P Q R S T U V W X Y Z