Kid Cudi - Pursuit Of Happiness tab

Tabbed by: LTdesign@live.com


Tuning: Standard

I've watched a few videos of Ratatat playing this, and this
is much closer than any other tabs I've found.




e|--------------------------------------------------|
B|-13-12-10-13-12-----------------------------------|
G|------------------9~~~--9/12-12~------------------|
D|--------------------------------------------------|
A|--------------------------------------------------|
E|--------------------------------------------------|


e|--------------------------------------------------|
B|-13-12-10-13-12-----------------------------------|
G|------------------9~~~----------------------------|
D|--------------------------------------------------|
A|--------------------------------------------------|
E|--------------------------------------------------|


e|--------------------------------------------------|
B|--------------------------------------------------|
G|--9\5-9-7-10-9/14-12-10-9~~~--2-2/5-7-9-7-2~~-----|
D|--------------------------------------------------|
A|--------------------------------------------------|
E|--------------------------------------------------|


e|--------------------------------------------------|
B|-17-15----17-15-------17-15----17-15--------------|
G|-------17--------12~--------17--------12~---------|
D|--------------------------------------------------|
A|--------------------------------------------------|
E|--------------------------------------------------|


e|--------------------------------------------------|
B|--------------------------------------------------|
G|-9-12-10-14-12-17-16-14-12~---2/9-10-12-10-10/17--|
D|--------------------------------------------------|
A|--------------------------------------------------|
E|--------------------------------------------------|
        





Please rate this tab. It's my first.


|r   release
|pb  pre-bend
| /  slide up
| \  slide down
| h  hammer-on
| p  pull-off
| ~  vibrato
| +  harmonic
| x  Mute note
Tap to rate this tab
 
# A B C D E F G H I J K L M N O P Q R S T U V W X Y Z