Song name
# A B C D E F G H I J K L M N O P Q R S T U V W X Y Z

Kid Cudi - Pursuit Of Happiness tab

Intro/chorus

Guitar 1
e--------------------------------------------------------------------|
b-1-----1-----------------------1------------1-----------------------|
g---x2--2-x2--------------<-x4-------x2---2-----2--x2----------------|
D-2-----2-----2----2------------2------3-x2--2-----------------------|
A-3-----------2-x2-2-x2-------3------3-------------------------------|
E--------------------------------------------------------------------|

Guitar 2
e--------------------------------------------------------------------|
b--13-------10-----------------5--------(tremolo at end)-------------|
g--------------------------------------------------------------------|
D--------------------------------------------------------------------|
A--------------------------------------------------------------------|
E--------------------------------------------------------------------|

Solo
e--------------------------------------------------------------------|
b----13---12---10---13---12------------------------------------------|
g------------------------------9~~~---/12 12-------------------------|
D--------------------------------------------------------------------|
A--------------------------------------------------------------------|
E--------------------------------------------------------------------|

e--------------------------------------------------------------------|
b--------------------------------------------------------------------|
g--------9------10-----14-12-10-9~\----------------------------------|
D----10-----12------14----------------/10~--12--14--12~--------------|
A-------------------------------------------------------12~----------|
E--------------------------------------------------------------------|


e--------------------------------------------------------------------|
b----13---12---10---13---12------------------------------------------|
g------------------------------9~~~---/12 12-------------------------|
D--------------------------------------------------------------------|
A--------------------------------------------------------------------|
E--------------------------------------------------------------------|


e--------------------------------------------------------------------|
b-----------------------------------------------------------13~~-----|
g--------9------10-----14-12-10-9~\----------------------------------|
D----10-----12------14----------------/10~--12--14--12~--------------|
A-------------------------------------------------------12~----------|
E--------------------------------------------------------------------|


|r   release
|pb  pre-bend
| /  slide up
| \  slide down
| h  hammer-on
| p  pull-off
| ~  vibrato
| +  harmonic
| x  Mute note
Tap to rate this tab
 
# A B C D E F G H I J K L M N O P Q R S T U V W X Y Z