Song name
# A B C D E F G H I J K L M N O P Q R S T U V W X Y Z

Kid Cudi - Revofev tab

Chords repeat through song
E|---3-5--2--5--7-|
B|---3-5--3--5--8-|
G|---4-6--4--6--9-|
D|---5-7--4--7--9-|
A|---5-7--2--7--7-|
E|---3-5--x--5--x-|

Riff plays periodically
E|----------------------|
B|----------------------|
G|-------7h9-7h9-7------|
D|---9--7----------9--7-|
A|----------------------|
E|----------------------|
Tap to rate this tab
 
# A B C D E F G H I J K L M N O P Q R S T U V W X Y Z