Kid Cudi - Marijuana tab

-------------------------------------------------------------------------------
			     Marijuana - Kid Cudi
-------------------------------------------------------------------------------
Tabbed by:Juliun
Email:Juliunjuju@hotmail.com         Just listen for when to do all the bends and slids.
Tuning:Standard

e|---------------------------------------------------------------------------|
B|---------------------------------------------------------------------------|
G|--------------------------4-----6--4-----------4--6--6--4--6--6/8/11-------|
D|-----------------4--6--6-----6--------6--4--6------------------------------|
A|--------4--4--6------------------------------------------------------------|           
E|--4--7---------------------------------------------------------------------|  

e|------------------------10-------------------------------------------------|
B|----------9--12------9------12--11-----------------------------------------|
G|--11--11---------11-----------------11--------------11--11--13--13---------|
D|----------------------------------------13------13-------------------------|
A|--------------------------------------------14-----------------------------|
E|---------------------------------------------------------------------------|

e|---------------------------------------------------------------------------|
B|--12--11--12--11--12--12/14--12--------------------------------------------|
G|---------------------------------11----------------------------------------|
D|---------------------------------------------------------------------------|
A|---------------------------------------------------------------------------|
E|---------------------------------------------------------------------------|



************************************

| /   slide up
| \   slide down
| h   hammer-on
| p   pull-off
| ~   vibrato
| +   harmonic
| x   Mute note
| b   Bend
| pb  Pre-bend
| br  Bend release
| pbr Pre-bend release
| brb Bend release bend

Tap to rate this tab
 
# A B C D E F G H I J K L M N O P Q R S T U V W X Y Z