Song name
# A B C D E F G H I J K L M N O P Q R S T U V W X Y Z

Kid Cudi - Marijuana tab

e|---------------------------------------------------------------------------|
B|---------------------------------------------------------------------------|
G|--------------------------4-----6b--6--4-----------4--6--6b--4--6--6/8/11--|
D|-----------------4--6--6-----6------------6--4--6--------------------------|
A|--------4--4--6------------------------------------------------------------|
E|--4--7---------------------------------------------------------------------|

e|------------------------10-------------------------------------------------|
B|----------9--12------9------12--11-----------------------------------------|
G|--11--11---------11-----------------11--------------11--11--13--13---------|
D|----------------------------------------13------13-------------------------|
A|--------------------------------------------14-----------------------------|
E|---------------------------------------------------------------------------|

e|------------------------------------------------------------------------------|
B|--12--11--12--11--12--12/14b--12----------------------------------------------|
G|---------------------------------13-------------------------------------------|
D|------------------------------------------------------------------------------|
A|------------------------------------------------------------------------------|
E|------------------------------------------------------------------------------|
Tap to rate this tab
 
# A B C D E F G H I J K L M N O P Q R S T U V W X Y Z